Ads

Enchanted Dominion (Duet) (Kingdom Hearts Birth by Sleep) Guitar Tab

Submitted: Dec 22, 2010 by TheDoomOfAllFires

5
Average: 5 (2 votes)
Download | Listen
Game: Kingdom Hearts Birth by Sleep
Composer(s): Yoko Shimomura, Takeharu Ishimoto, Tsuyoshi Sekito
Style: 2 or more instruments, Arrangement, Fingerstyle
Series: Kingdom Hearts

AutoScroll: Slow | Medium | Fast
Kingdom Hearts : Birth By Sleep - Enchanted Dominion
Arranged by TheDoomOfAllFires, 12/22/2010
BPM = 64
Standard Tuning
Capo. 1


Hope you like it ! ^^



Guitar #1 (Capo 1)

     E  E  E  E  E  E  E  E     E  E  E  E  E  E  E  E   
E||--0-----3-----0-----3-----|--------2-----------2-----|
B||-----0-----0-----0-----0--|--4-----------4-----------|
G||--------------------------|-----4-----4-----4-----4--|
D||--------------------------|--------------------------|
A||--------------------------|--2-----------------------|
E||--0-----------------------|--------------------------|


  E  E  E  E  E  E  E  E     E  E  E  E  E  E  E  E   
--0-----3-----0-----3-----|--------5-----------5-----|
-----0-----0-----0-----0--|--5-----------5-----------|
--------------------------|-----5-----5-----5-----5--|
--------------------------|--------------------------|
--3-----------------------|--0-----------------------|
--------------------------|--------------------------|


  E  E  E  E  E  E  E  E     E  E  E  E  E  E  E  E   
--0-----3-----0-----3-----|--0-----3-----0-----3-----|
-----0-----0-----0-----0--|-----0-----0-----0-----0--|
--------------------------|--------------------------|
--------------------------|--------------------------|
--------------------------|--------------------------|
--0--0--------------------|--0--0--------------------|


    E  E  E  E  E  E  E  E     E  E  E  E  E  E  E  E   
|---0-----3-----0-----3-----|--------2-----------2-----|
|------0-----0-----0-----0--|--4-----------4-----------|
|*--------------------------|-----4-----4-----4-----4--|
|*--------------------------|--------------------------|
|---------------------------|--2-----------------------|
|---0-----------------------|--------------------------|


  E  E  E  E  E  E  E  E     E  E  E  E  E  E  E  E   
--0-----3-----0-----3-----|--------5-----------5-----|
-----0-----0-----0-----0--|--5-----------5-----------|
--------------------------|-----5-----5-----5-----5--|
--------------------------|--------------------------|
--3-----------------------|--0-----------------------|
--------------------------|--------------------------|


  E  E  E  E  E  E  E  E     E  E  E  E  E  E  E  E   
--0-----3-----0-----3-----|--------2-----------2-----|
-----0-----0-----0-----0--|--4-----------4-----------|
--------------------------|-----4-----4-----4-----4--|
--------------------------|--------------------------|
--------------------------|--2-----------------------|
--0-----------------------|--------------------------|


  E  E  E  E  E  E  E  E     E  E  E  E  E  E  E  E   
--0-----3-----0-----3-----|--------5-----------5-----|
-----0-----0-----0-----0--|--5-----------5-----------|
--------------------------|-----5-----5-----5-----5--|
--------------------------|--------------------------|
--3-----------------------|--0-----------------------|
--------------------------|--------------------------|


  E  E  E  E  E  E  E  E     E  E  E  E  E  E  E  E   
--0-----3-----0-----3-----|--0-----3-----------------|
-----0-----0-----0-----0--|-----0-----0-----2-----2--|
--------------------------|--------------3-----3-----|
--------------------------|--------------4-----4-----|
--------------------------|--------------------------|
--0--0--------------------|--0--0--------------------|


  E  E  E  E  E  E  E  E     E  E  E   E  E  E  E  E   
-----------------------0--|---------------------------|
-----------3--------1-----|--------3p--1-----------0--|
--------4--------0--------|-----2---------------0-----|
-----4--------------------|--0---------------0--------|
--2-----------3-----------|---------------------------|
--------------------------|---------------3-----------|


  E  E  E  E  E  E  E  E     E  E  E  E  H           E  E  E  E  E  E  E  E   
--------------------------|-----------------------|--0-----3-----0-----3-----|
-----------------------1--|--------2-----0--------|-----0-----0-----0-----0--|
-----------0--------2-----|-----3-----3-----------|--------------------------|
--------2--------2--------|-----------------------|--------------------------|
-----2--------0-----------|--1-----------2--------|--------------------------|
--0-----------------------|-----------------------|--0--0--------------------|


                               ^                  
  E  E  E  E  E  E  E  E       W                  
--0-----3-----0-----3------||--0----------------||
-----0-----0-----0-----0---||--0----------------||
--------------------------*||--0----------------||
--------------------------*||--2----------------||
---------------------------||--2----------------||
--0--0---------------------||--0----------------||

_______________________________________________________________________________
_______________________________________________________________________________


Guitar #2 (Capo 1)

                                                       Q    Q    Q    E  E   
E||-------|-------|-------|-------|-------|-------||-------------3----2--0--|
B||-------|-------|-------|-------|-------|-------||--------0---------------|
G||-------|-------|-------|-------|-------|-------||*-----------------------|
D||-------|-------|-------|-------|-------|-------||*-----------------------|
A||-------|-------|-------|-------|-------|-------||------------------------|
E||-------|-------|-------|-------|-------|-------||------------------------|


                                                           |-3-|         
  Q    Q    Q    E  E     Q    Q    Q    E  E     H        S S S Q.      
--2---------5----3--2--|--3---------3----2--0--|------------------------|
-------0---------------|-------0---------------|--3--------1-3-1-L------|
-----------------------|-----------------------|------------------------|
-----------------------|-----------------------|------------------------|
-----------------------|-----------------------|------------------------|
-----------------------|-----------------------|------------------------|


  Q    Q    Q    E  E     E  E  H        E  E     E  E  H        E  E   
------------3----2--0--|--2--3--5--------7--5--|--3--2--0--------2--3--|
-------0---------------|-----------------------|-----------------------|
-----------------------|-----------------------|-----------------------|
-----------------------|-----------------------|-----------------------|
-----------------------|-----------------------|-----------------------|
-----------------------|-----------------------|-----------------------|


  H        Q    Q       E  E  E  E  H           E  E  E  E  H         
--2--------3----5----|-----------------------|-----------------------|
---------------------|-----------------------|-----------------------|
---------------------|--------------0--------|-----------0--L--------|
---------------------|--------2--4-----------|--------2--------------|
---------------------|-----2-----------------|-----2-----------------|
---------------------|--0--------------------|--0--------------------|


  E  E  E  E  E  E  E  E     E  E  E  E  E  E  E  E   
--------2-----3--0--5--3--|--2--0-----0--------------|
--0--3-----3--------------|--------3-----0--1--3--0--|
--------------------------|--------------------------|
--------------------------|--------------------------|
--------------------------|--------------------------|
--------------------------|--------------------------|


  E  E  E  E  E  E  E  E     E  E  E  E  Q    Q       W                 
--0-----3-----2--3--5--2--|--3--2--3--5--3----2----|--0----------------|
-----0-----0--------------|------------------------|-------------------|
--------------------------|------------------------|-------------------|
--------------------------|------------------------|-------------------|
--------------------------|------------------------|-------------------|
--------------------------|------------------------|-------------------|


--------||-------||
--------||-------||
-------*||-------||
-------*||-------||
--------||-------||
--------||-------||




Duration Legend
---------------
W - whole
H - half
Q - quarter
E - 8th
S - 16th
T - 32nd
X - 64th
. - note dotted
|-n-|  - n-tuplets


Tablature Legend
----------------
L - tied note
x - dead note
g - grace note
(n) - ghost note
> - accentuded note
NH - natural harmonic
AH - artificial harmonic
TH - tapped harmonic
SH - semi harmonic
PH - pitch harmonic
h - hammer on
p - pull off
b - bend
br - bendRelease
pb - preBend
pbr - preBendRelease
brb - bendReleaseBend
\n/ - tremolo bar dip
\n - tremolo bar dive
-/n - tremolo bar Release up
/n\ - tremolo bar inverted dip
/n - tremolo bar return
-\n - tremolo bar Release down
S - shift slide
s - legato slide
/ -  slide into from below or out of upwards
\ -  slide into from above or out of downwards
~ - vibrato
W - wide vibrato
tr - trill
TP - tremolo picking
T - tapping
S - slap
P - pop
< - fade in
^ - brush up
v - brush down

Login or Register to remove this ad.

1 comment on Enchanted Dominion (Duet)

OH nice !

5

It s just as I like. Sounds great, easy to play & slow, this is a nice gift, thanx & merry Christmas