Ads

Enchanted Dominion (Kingdom Hearts Birth by Sleep) Guitar Tab

Submitted: Oct 12, 2010 by Luminaire271 (Last updated: Oct 12, 2010)

5
Average: 5 (7 votes)
Download | Listen
Game: Kingdom Hearts Birth by Sleep
Composer(s): Yoko Shimomura, Takeharu Ishimoto, Tsuyoshi Sekito
Style: Arrangement, Fingerstyle
Series: Kingdom Hearts

Click here for a video example.

AutoScroll: Slow | Medium | Fast
Enchanted Dominion
Kingdom Hearts Birth By Sleep
Composed by: Yoko Shimomura
Tabbed by: Luminaire271
10/11/10


Track 1 (Capo 1)
     E  E  E  E  E  E  E  E     E  E  E  E  E  E  E  E     E  E  E  E  E  E  E  E   
E||--0-----3-----0-----3-----|--------2-----------2-----|--0-----3-----0-----3-----|
B||-----0-----0-----0-----0--|--4-----------4-----------|-----0-----0-----0-----0--|
G||--------0-----------0-----|-----4-----4-----4-----4--|--------0-----------0-----|
D||--------------------------|--------4-----------4-----|--------------------------|
A||--------------------------|--2-----------------------|--3-----------------------|
E||--0-----------------------|--------------------------|--------------------------|


  E  E  E  E  E  E  E  E       E  E  E  E  E  E  E  E     E  E  E  E  E  E  E  E   
--------5-----------5-----||---0-----3-----0-----3-----|--0-----3-----0-----3-----|
--5-----5-----5-----5-----||------0-----0-----0-----0--|-----0-----0-----0-----0--|
-----5-----5-----5-----5--||*--------0-----------0-----|--------0-----------0-----|
--------------------------||*--------------------------|--------------------------|
--0-----------------------||---------------------------|--------------------------|
--------------------------||---0--0--------------------|--0--0--------------------|


  E  E  E  E  Q    E  E     E  E  E  E  Q    E  E     E  E  E  E  Q    E  E   
--------------3----2--0--|--2-----------5----3--2--|--3-----------3----2--0--|
--------0----------------|-------------------------|--------0----------------|
--------------0----------|--------4----------------|-----0-------------------|
--------2--4-------2-----|-----4-------------------|--------0--2-------------|
-----2-------------------|--2--------4--6----2-----|--3----------------3-----|
--0----------------------|-------------------------|-------------------------|


              |-3-|                                                              
  E  E  E  E  S S Q    Q       E  E  E  E  Q    E  E     E  E  E  E  Q    E  E   
----------------------------|--------------3----2--0--|--2--3--5----------7--5--|
--3-----------1-3-1----L----|--0-----0----------------|-------------------------|
--------------0-------------|--------------0----------|--------4----------------|
----------------------------|--------2--4-------2-----|-----4-------------------|
--0-----2--3----------------|-----2-------------------|--2--------4--6----------|
-----0----------------------|--0----------------------|-------------------7-----|


  E  E  E  Q.     E  E     E  E  E  E  Q    Q       E  E  E  E  E  E  E  E   
--3--2--0---------2--3--|--2-----------3----5----|--0-----3-----0-----3-----|
------------------------|------------------------|-----0-----0-----0-----0--|
-----0------------------|--------------0---------|--------------------------|
--------0--2------------|------------------------|--------2--4--------------|
--3---------------2-----|--0-----2--3------------|-----2--------------------|
------------------------|-----0------------------|--0-----------------------|


  E  E  E  E  E  E  E  E     E  E  E  E  E  E  E  E     E  E  E  E  E  E  E  E   
--0-----3-----------------|--------2-----3--0--5--3--|--2--0-----0--------------|
-----0-----0-----2-----2--|--0--3-----3--------------|--------3-----0--1--3--0--|
-----------0--3-----3-----|--------------------------|--------------------------|
--------2-----4-----4-----|--------------------------|--0-----------------------|
-----2--------------------|--2-----------3-----------|--------------------------|
--0-----------------------|--------------------------|--------------3-----------|


                                                        ^                  
  E  E  E  E  E  E  E  E     E  E  E  E  Q    Q         W                  
--0-----3-----2--3--5--2--|--3--2--3--5--3----2-----||--0----------------||
-----0-----0--------------|-------------------------||--0----------------||
--0-----------2-----------|--3-----------4---------*||--0----------------||
--------------------------|------------------------*||--2----------------||
--------------0-----------|--1-----------2----------||--2----------------||
--0-----------------------|-------------------------||--0----------------||




Duration Legend
---------------
W - whole
H - half
Q - quarter
E - 8th
S - 16th
T - 32nd
X - 64th
. - note dotted
|-n-|  - n-tuplets


Tablature Legend
----------------
L - tied note
x - dead note
g - grace note
(n) - ghost note
> - accentuded note
NH - natural harmonic
AH - artificial harmonic
TH - tapped harmonic
SH - semi harmonic
PH - pitch harmonic
h - hammer on
p - pull off
b - bend
br - bendRelease
pb - preBend
pbr - preBendRelease
brb - bendReleaseBend
\n/ - tremolo bar dip
\n - tremolo bar dive
-/n - tremolo bar Release up
/n\ - tremolo bar inverted dip
/n - tremolo bar return
-\n - tremolo bar Release down
S - shift slide
s - legato slide
/ -  slide into from below or out of upwards
\ -  slide into from above or out of downwards
~ - vibrato
W - wide vibrato
tr - trill
TP - tremolo picking
T - tapping
S - slap
P - pop
< - fade in
^ - brush up
v - brush down
Login or Register to remove this ad.