Ads

Xion's Theme (Kingdom Hearts 358/2 Days) Guitar Tab

Submitted: Sep 21, 2011 by Max_depa

5
Average: 5 (4 votes)
Download | Listen
Game: Kingdom Hearts 358/2 Days
Composer(s): Yoko Shimomura
Style: Arrangement, Fingerstyle

AutoScroll: Slow | Medium | Fast
Xion's Theme - Kingdom Hearts 358/2 Days
Arranged by: Max_depa
Composed by: Yoko Shimomura

Capo:1

     E  E  E  E  E  E  E  E     E  E  E  E  E  E  E  E   
E||--------0--------0--------|--0--------------------0--|
B||-----2-----0--2-----0--2--|-----0--2--0-----0--2-----|
G||--4-----2-----------------|--------1-----2-----1-----|
D||--------------------2--4--|--------2--------------4--|
A||-----4-----------0--------|-----2-----2-----4--------|
E||--2-----------------------|--0-----------2-----------|


  E  E  E  E  E  E  E  E     S S S S E  E  E  E  E  E   
--------------------------|-------------------------0--|
--0--------2--------------|----------------------------|
--2--------------------1--|--1-2-1---1--2--1-----------|
--------4-----4-----4-----|-------------------4--------|
-----0--5--------2--------|--------4-------0-----4--0--|
--------------0-----------|--2-------------------4-----|


  E  E  E  E  E  E  E  E     E  E  E  Q.     E  E     E  E  E  E  E  E  E  E   
--------------2--------4--|-----------2---------0--|--------------------------|
--0--------2--0-----------|--2---------------------|--0--------2--------------|
--2--------------------1--|--------2--1------------|--2--------------------1--|
--------4-----------4-----|------------------------|--------4-----4-----4-----|
-----0--5--------2--------|-----4---------------0--|-----0--5--------2--------|
--------------0-----------|--2---------------4-----|--------------0-----------|


  S S S S E  E  E  E  E  E     E  E  E  E  E  E  E  E   
-------------------------0--|--------------2-----------|
----------------------------|--0--------2--0-----------|
--1-2-1---1--2--1-----------|--2--------------------1--|
-------------------4--------|--------4-----------4-----|
--------4-------0-----4--0--|-----0--5--------2--------|
--2-------------------4-----|--------------0-----------|


  E  E  E  Q.     E  E     E  E  E  E  E  E  E  E     E  E  E  E  E  E  E  E   
-----------2------------|--------0--------0--------|--------4--5--4--2--------|
--2---------------------|--0--2-----0--2-----0--2--|--0--2--------------2-----|
--------2--1------------|-----------------------1--|--------------------------|
------------------------|--------4-----------4-----|--------4-----------------|
-----4---------------0--|--0--0--5-----2--2--------|--4--4-----------------0--|
--2---------------4-----|--------------0-----------|--2-----------------4-----|


  E  E  E  E  E  E  E  E     E  E  E  E  Q    Q     
--------0--------0--------|--4--5--4--2------------|
--0--2-----0--2-----0--2--|--------------2---------|
-----------------------1--|------------------------|
--------4-----------4-----|--------------0---------|
--0--0--5-----2--2--------|--2-----2--4------------|
--------------0-----------|-----2-------------2----|


  E  E  S S S S E  E  S S S S    E  E  E  E  E  E  E  E   
--2-------3-0---0-------1-----|--0-----------------------|
--------1-----3-----------3-1-|--------------------------|
-----0----------------2-------|--------------------------|
-------------------3----------|-----------------2--------|
--3-------------0-------------|--------0--2--4-----0--4--|
------------------------------|-----2--------------------|


    E  E  Q    E  E  Q       E  Q    E  E  E  E  E     E  E  Q    E  E  E  E   
|---------1----------5----|--3-------1--0--1--3--5--|--------1----------5--3--|
|---3---------------------|--1----------3-----------|--3----------1-----------|
|*--2--2-------2-----2----|--0--0----0-----2--0--2--|--2-----3----2--0--2--0--|
|*--0-----3-------3-------|--2-------3--2--3--------|-----3--3----------------|
|--------------1----------|--3----------------------|--1----------3-----------|
|-------------------------|-------------------------|-------------------------|


  E  E  E  E  Q    E  E     E  E  S S S S E  Q.        E  E  E  E  E  E  E  E   
--3--------1-------------|--0-------1-3-5-0---------|-----0--1--0--------------|
--1----------------------|--------------------------|--------------------------|
--0-----2--3--3----------|--------3----------0------|-----2--------2-----------|
-----0-----3-------------|-----3--------------------|--0-----------------2--3--|
--------------1----0--1--|--1-------------3---------|-----------------0--------|
--3----------------------|--------------------------|--------------------------|


  E  E  S S S S E  Q.        E  E  E  E  E  E  E  E   
--0-------1-3-5-0---------|-----1--3--1--------------|
--------------------------|--------------3--------1--|
--------3----------0------|-----0--------------------|
-----3--------------------|--------------------2--3--|
--1-------------3---------|--3--------------0--------|
--------------------------|--------------0-----------|


  E  E  E  E  E  E  E  E     S S S S S S S E.  E  E  E   
-----8--3--------5--0-----|--1---0---0-1-0--------------|
--1-----------3-----3-----|--------------------------1--|
--------3--2-----0--------|----------2-----2------------|
--3-----------0--------2--|--0-3-2---3------------2--3--|
--1--8--------3-----------|--------0-----------0--------|
--------------------------|-----------------------------|


  E  E  E  E  E  E   E  S  S    S S Q    S  S Q    E  E   
-----8--3-----0--5--10----12-|----5--------10------0-----|
--3-----------3--------------|--6-------------8----------|
--------3--2--0--0------9----|-----------7---------------|
--3--------------------------|--7---7--------------2--3--|
--1--8--------3--------------|--5-------------0----------|
-----------------------------|---------------------------|


  E  E  E  E  E  E  E  E     E  E  E  E  E  E  E  E   
--------------------------|--------0--1--0-----------|
--------1--------1--------|-----------------3--------|
--0--2-----0--2-----0--2--|--0--2--------------2-----|
--3--3--------------------|--0-----------------2--3--|
--1-----------3-----------|-----------------0--------|
--------------------------|--------------------------|


  E  E  E  E  E  E  E  E     E  E  E  E  Q    Q       
--------------------------|--0--1--0----------------||
--------1--------1--------|-----------3-------------||
--0--2-----0--2-----0--2--|--2-----0--2--3---------*||
--3--3--------------------|-----0-------------0----*||
--1-----------3-----------|-------------------------||
--------------------------|-------------------------||




Duration Legend
---------------
W - whole
H - half
Q - quarter
E - 8th
S - 16th
T - 32nd
X - 64th
. - note dotted
|-n-|  - n-tuplets


Tablature Legend
----------------
L - tied note
x - dead note
g - grace note
(n) - ghost note
> - accentuded note
NH - natural harmonic
AH - artificial harmonic
TH - tapped harmonic
SH - semi harmonic
PH - pitch harmonic
h - hammer on
p - pull off
b - bend
br - bendRelease
pb - preBend
pbr - preBendRelease
brb - bendReleaseBend
\n/ - tremolo bar dip
\n - tremolo bar dive
-/n - tremolo bar Release up
/n\ - tremolo bar inverted dip
/n - tremolo bar return
-\n - tremolo bar Release down
S - shift slide
s - legato slide
/ -  slide into from below or out of upwards
\ -  slide into from above or out of downwards
~ - vibrato
W - wide vibrato
tr - trill
TP - tremolo picking
T - tapping
S - slap
P - pop
< - fade in
^ - brush up
v - brush down
Login or Register to remove this ad.

4 comments on Xion's Theme

wow

5

you did a really great job Max_depa =D I love it *0*

Huray!

yay! this is amazing! I was waiting for someone to tab this!!! :D you are a cool person for tabbing this.

Exellent

5

Exellent work of Art My Friend

ummm

I preffer this version over the lonlonjp version

(forgive my poor english)