A Twinkle in the Sky (Kingdom Hearts 2) Guitar Tab

Submitted: Feb 26, 2012 by JordanVS

4.666665
Average: 4.7 (3 votes)
Download | Listen
Game: Kingdom Hearts 2
Composer(s): Yoko Shimomura
Style: Arrangement, Fingerstyle
Series: Kingdom Hearts

AutoScroll: Slow | Medium | Fast
A Twinkle In the Sky                                
Kingdom Hearts 2
Yoko Shimomura


*Capo on 3rd fret



     Q    Q    Q    E  E     Q    Q    Q    E  E     Q    Q    Q    Q     
E||------------0----2--3--|--2---------0----2--3--|--2---------0---------|
B||-------3---------------|-------3---------------|-------3---------1----|
G||--0--------------------|-----------------------|----------------------|
D||-----------------------|-----------------------|----------------------|
A||-----------------------|-----------------------|----------------------|
E||--3--------------------|--3--------------------|--3-------------------|


  Q    Q    H           Q    Q    Q    E  E     Q    Q    Q    E  E   
---------------------|------------0----2--3--|--2---------0----2--3--|
--0------------------|-------3---------------|-------3----1----3-----|
-------0----2--------|--0--------------------|-----------------------|
---------------------|------------0----------|-----------------------|
------------0--------|-----------------------|-----------------------|
--3------------------|--3--------------------|--3--------------------|


  Q    Q    Q    Q       Q    Q    H           Q    Q    Q    E  E   
--2---------0---------|---------------------|------------0----2--3--|
--1----3----0----1----|--0------------------|-------3---------------|
-------2--------------|--2----0----2--------|--0--------------------|
----------------------|------------5--------|------------0----------|
----------------------|------------0--------|-----------------------|
--3-------------------|--3------------------|--3--------------------|


  Q    Q    Q    E  E     Q    Q    Q    Q       Q    Q    H         
--2---------0----2--3--|--2---------0---------|---------------------|
-------3---------------|-------3---------1----|--0------------------|
-----------------------|------------0---------|-------0----2--------|
------------2----------|--0-------------------|------------3--------|
-----------------3-----|----------------------|------------0--------|
--3--------------------|--3-------------------|--3------------------|


  Q    Q    Q    E  E     Q    Q    Q    E  E     Q    Q    Q    Q     
------------3----5--6--|--5---------3----5--6--|--5---------3---------|
-------6---------------|-------6---------------|-------6---------4----|
--3--------------------|-----------------------|----------------------|
------------0----------|-----------------------|----------------------|
--1----3---------------|-----------------------|----------------------|
-----------------------|--6--------------------|--6-------------------|


  Q    Q    H           Q    Q    Q    E  E     Q    Q    Q    E  E   
---------------------|------------3----5--6--|--5---------3----5--6--|
--3---------1--------|-------6---------------|-------6---------------|
-------3-------------|--3---------0----2--3--|--2---------0----2--3--|
---------------------|-------3---------------|-------3---------------|
--1---------3--------|--1--------------------|-----------------------|
---------------------|-----------------------|-----------------------|


  Q    Q    Q    Q       Q    Q    H           W                  
--5---------3---------|---------------------|-------------------||
-------6---------4----|--3------------------|-------------------||
--2---------0---------|-------3----5--------|--L----------------||
-------3---------1----|--0------------------|-------------------||
----------------------|-------1----3--------|--L----------------||
----------------------|---------------------|-------------------||




Duration Legend
---------------
W - whole
H - half
Q - quarter
E - 8th


Tablature Legend
----------------
L - tied note

Login or Register to remove this ad.