Ads

Roxas' Theme (Kingdom Hearts 2) Guitar Tab

Submitted: Mar 22, 2015 by DonnieStorm

3
Average: 3 (1 vote)
Download | Listen
Game: Kingdom Hearts 2
Composer(s): Yoko Shimomura
Style: Arrangement, Fingerstyle
Series: Kingdom Hearts

AutoScroll: Slow | Medium | Fast
  E E E E E E E E   E E E E E E E E
|-----------------|-2-----2-----2---|
|-5-----5-----5---|-----------------|
|---4-2---4-2---4-|---2-4---2-4---2-|
|-----------------|-----------------|
|-----------------|-----------------|
|-----------------|-----------------|


    E E E E E E E E   E E E E Q  Q    E E E E Q  Q    E E E E Q  Q
||--3-----3-2-------|---0-----------|-------0----3--|---------0--2----||
||o-----0-------3---|-----3-1-3-----|---1-3---3-----|-1-0-1-3--------o||
||------------2---2-|------------0--|---------------|-----------------||
||----2-----0-------|---------------|---------------|---------0-------||
||o-----------------|---------3-----|---------------|-3--------------o||
||------------------|---------------|---------------|-----------------||


  E E E E Q  E E   Q  Q  Q  Q
|-3-5-7-3-5--3-2-|-0-----------*|
|----------------|----0--------*|
|----------------|-------0-----*|
|----------------|----------2--*|
|----------------|-------------*|
|----------------|-------------*|

Then repeat. By the way this is my first time making a tab, so please be gentle with me.
Login or Register to remove this ad.

6 comments on Roxas' Theme

This isn't showing up right I'm so pissed.

I can't seem to get this formatted right. Why is this site so difficult?!

I have this properly formatted on my deviant art page

I'm a professional writer the tab link is right here. http://galacticpb.deviantart.com/art/Roxas-Guitar-Tab-521286947

It would be my guess that

It would be my guess that whoever uploaded the tab to the website formatted it to be easier to read. The version on the site you linked to would be harder to play without already knowing the song quite well.

Did you get that PM I sent

Did you get that PM I sent you? Like jacob said, I remade the tab in powertab to add the rhythm durations and also fixed a couple notes in measures 5 and 8. I can post the other version if you want, though.

Nah that's fine.

Thank you for your help. I didn't read the message, so I thought I made a mistake during the formatting. It's all good.

What you have sounds right

3

What you have sounds right although the way it's written makes the timing seem weird (for me anyhow). A few extra bass notes would make this really shine.

(alternate way to play opening)

   E E E E E E E E   E E E E E E E E
E|-0-----0-----0---|-2-----2-----2---|
B|---0-----0-----0-|-----0-----0-----|
G|-----2-----2-----|---2-----2-----2-|
D|-----------------|-----------------|
A|-----------------|-----------------|
E|-----------------|-----------------|