Ads

Organization XIII (dolanders3 version) (Kingdom Hearts 2) Guitar Tab

Submitted: Oct 23, 2011 by randomzero (Last updated: Oct 23, 2011)

4
Average: 4 (1 vote)
Download | Listen
Game: Kingdom Hearts 2
Composer(s): Yoko Shimomura
Style: Arrangement, Fingerstyle, Transcription
Series: Kingdom Hearts

AutoScroll: Slow | Medium | Fast
"Organization 13 Theme"
Kingdom Hearts 2
Yoko Shimomura
randomzero
10/23/2011



e----------------------------------------------------------------6---------8--------20-----------------------------------
B------------------------8----------------------------8---------------8-------------20----20----13-----------------------
G---------3----7----5---------7---------3---7----5---------7-----7----7----8--------------19----12----12-----------------
D---------5---------5-------------------5--------5----------------------------------------------------10----10-----------
A-------------------3----------------------------3----------------------------------------------------------10----10-----
E----8-----------------------------8--------------------------3------------4---------------------------------------8-----



e----8-----------------------------8----------------------------8-----------------------------8--------------------------
B--------------------7----8--------4----6----4----3----4------------------------7----8--------4----6----4----3----4------
G----8----10----8----7----8-----------------------4----5--------8----10----8----7----8-----------------------4----5------
D------------------------------------------------------------------------------------------------------------------------
A-------------------------------------------------2----3------------------------8----------------------------2----3------
E--------------------7----8----------------------------------------------------------8-----------------------------------



e------------------------------------------------------------------------------------------------------------------------
B----------------6----4----3----3/4/3-------------------3--------------------6----4----3--------------3------------------
G------------5------------------4/5/4----5----4----5----4----------------5------------------4----5---------0----2----4---
D--------5-------------------------------6----5----6-----------------5-------------------------------------3----1----0---
A----3-----------------------------------------------------------3-------------------------------------------------------
E------------------------------------------------------------------------------------------------------------------------



e----------------------------------------------------------------6---------8--------20-----------------------------------
B------------------------8----------------------------8---------------8-------------20----20----13-----------------------
G--------------7----5---------7-------------7----5---------7-----7----7----8--------------19----12----12-----------------
D---------5---------5-------------------5--------5----------------------------------------------------10----10-----------
A---------6---------3-------------------6--------3----------------------------------------------------------10----10-----
E----8-----------------------------8--------------------------3------------4---------------------------------------8-----

Login or Register to remove this ad.

2 comments on Organization XIII (dolanders3 version)

3rd fret and 8th

this might work better in a different tuning because of the stretching on some notes

Definitely can use some

Definitely can use some tweaking, but everything is pretty spot on aside from being weird to play.