Ads

Organization XIII (Kingdom Hearts 2) Guitar Tab

Submitted: Oct 04, 2013 by JordanVS

5
Average: 5 (7 votes)
Download | Listen
Game: Kingdom Hearts 2
Composer(s): Yoko Shimomura
Style: Arrangement, Fingerstyle
Series: Kingdom Hearts

AutoScroll: Slow | Medium | Fast
Organization XIII   
Kingdom Hearts 2
Yoko Shimomura
JordanVS                             


* Capo on 3rd fret

3/4

          ^            ^                      ^            ^               
     Q    Q    Q       Q    Q    Q       Q    Q    Q       Q    Q    Q     
E||-----------------|-------0---------|-----------------|-------0---------|
B||------------0----|------------0----|------------0----|------------0----|
G||-------0---------|--2--------------|-------0---------|--2--------------|
D||-------2---------|--3--------------|-------2---------|--3--------------|
A||-------3---------|--3--------------|-------3---------|--3--------------|
E||--5--------------|--1--------------|--5--------------|--1--------------|


  Q    Q    Q       H.               Q     Q    Q       Q    Q    Q     
-------3----7----|--5------------|--12---------------|-----------------|
-------5----5----|--5------------|--10----10---------|-----------------|
-------0----4----|---------------|---------9----9----|-----------------|
-----------------|---------------|--------------7----|--7--------------|
-----------------|---------------|-------------------|--7----7----0----|
--0--------------|--1------------|-------------------|-------5----0----|


  H           Q    Q    Q       Q    H           Q    Q    Q     
-----------|--5--------------|----------------|-----------------|
-----------|-------3----1----|--0----1--------|-----------------|
-----------|--2--------------|----------------|--2--------------|
-----------|-----------------|--1----2--------|-------0---------|
--L--------|--0--------------|--0-------------|--0---------3----|
--L--------|-----------------|----------------|-----------------|


  Q    H           Q    Q    Q       Q    H           Q    Q    Q     
----------------|--5--------------|----------------|-----------------|
----------------|-------3----1----|--0----1--------|-----------------|
----------------|--5--------------|----------------|--2--------------|
----------------|-----------------|--1----2--------|-------0---------|
--2----3--------|--0--------------|--0-------------|--0---------3----|
----------------|-----------------|----------------|-----------------|


  Q    H           Q    Q    Q       Q    Q    Q       Q    Q    Q     
----------------|-----------------|-----------------|-----------------|
----------------|-----------------|--3----1----0----|--1----0---------|
----------------|------------2----|-----------------|------------2----|
----------------|-------2---------|--3--------------|--2--------------|
--2----3--------|--0--------------|--0--------------|--0--------------|
----------------|-----------------|-----------------|-----------------|


  Q    Q    Q       Q    Q    Q       Q    Q    Q       Q    Q    Q     
-----------------|-----------------|-----------------|-----------------|
------------0----|-----------------|--3----1----0----|------------0----|
--1----2---------|------------2----|-----------------|--1----2---------|
--0--------------|-------2---------|--3--------------|--2--------------|
--0--------------|--0--------------|--0--------------|--0--------------|
-----------------|-----------------|-----------------|-----------------|


                    ^                              
  Q    Q    Q       H.              H.             
-----------------|---------------|---------------||
-----------------|---------------|---------------||
------------1----|--2------------|--L------------||
--2----4---------|--2------------|--L------------||
--2--------------|--3------------|--L------------||
--0--------------|--5------------|--L------------||




Duration Legend
---------------
W - whole
H - half
Q - quarter
E - 8th
S - 16th
. - note dotted


Tablature Legend
----------------
L - tied note
^ - brush up
v - brush down
Login or Register to remove this ad.

1 comment on Organization XIII

Beautiful

5

Beautiful