Ads

Naminé (Kingdom Hearts 2) Guitar Tab

Submitted: Mar 04, 2015 by massinelli

5
Average: 5 (7 votes)
Download | Listen
Game: Kingdom Hearts 2
Composer(s): Yoko Shimomura
Style: Arrangement, Fingerstyle, Tapped harmonics
Series: Kingdom Hearts

AutoScroll: Slow | Medium | Fast
Naminé's Theme
Kingdom Hearts II Original Soundtrack
Arranged by Matheus Massinelli
Composer: Yoko Shimomura
Link to the video demonstration:
http://youtu.be/iyFgIQHt1UY
If you like, subscribe !  

Standard Tuning
Capo 1st Fret


Allegro Moderato 
     ^                                                               
     Q    Q    H           Q    Q    H           H        Q    Q     
E||--0------------------|-------0-------------|----------------0----|
B||---------------------|--3------------------|--3--------3---------|
G||------------2--------|------------2--------|--2------------------|
D||------------3--------|------------3--------|---------------------|
A||-------3-------------|------------1--------|---------------------|
E||--1------------------|---------------------|---------------------|


  ^                                                       ^          
  Q    Q    H           Q    Q    Q    E  E     Q    Q    Q    Q     
--5------------------|--3----5----0----------|--8----5----0---------|
---------------------|--------------------3--|----------------------|
------------2--------|-----------------0-----|----------------------|
------------3--------|-----------------------|----------------------|
-------3-------------|------------1----------|-----------------3----|
--1------------------|-----------------------|------------1---------|


  H        Q    Q       E  E  E  E  E  E  Q       Q    Q    Q    Q     
----------------0----|--5--3--------------8----|--5----3----0----1----|
-----------3---------|--------3----------------|-----------------3----|
--2------------------|-----------2--0----------|----------------------|
--3------------------|-----------0-----0-------|-------0--------------|
---------------------|--1-----------------3----|----------------------|
---------------------|-------------------------|----------------------|


  Q    Q    Q    Q       W                   E  E  E  Q     Q.      
--0-------------------|-------------------|--8--5--8--3p----0------|
--1----1--------------|-------------------|------------------------|
------------2----0----|-------------------|------------------------|
------------3---------|--0----------------|------------------------|
--3---------1---------|--1----------------|------------------------|
----------------------|-------------------|------------------------|


  ^                                                               
  Q    Q    H           Q    Q    H           H        Q    Q     
--0------------------|-------0-------------|----------------0----|
---------------------|--3------------------|--3--------3---------|
------------2--------|------------2--------|--2------------------|
------------3--------|------------3--------|---------------------|
-------3-------------|------------1--------|---------------------|
--1------------------|---------------------|---------------------|


  ^                                                       ^          
  Q    Q    H           Q    Q    Q    E  E     Q    Q    Q    Q     
--5------------------|--3----5----0----------|--8----5----0---------|
---------------------|--------------------3--|----------------------|
------------2--------|-----------------0-----|----------------------|
------------3--------|-----------------------|----------------------|
-------3-------------|------------1----------|-----------------3----|
--1------------------|-----------------------|------------1---------|


  H        Q    Q       E  E  E  E  E  E  Q       Q    Q    Q    Q     
----------------0----|--5--3--------------8----|--5----3----0----1----|
-----------3---------|--------3----------------|-----------------3----|
--2------------------|-----------2--0----------|----------------------|
--3------------------|-----------0-----0-------|-------0--------------|
---------------------|--1-----------------3----|----------------------|
---------------------|-------------------------|----------------------|


  Q    Q    Q    Q       W                   E  E  E  Q     Q.      
--0-------------------|-------------------|--8--5--8--3p----0------|
--1----1--------------|-------------------|------------------------|
------------2----0----|-------------------|------------------------|
------------3---------|--0----------------|------------------------|
--3---------1---------|--1----------------|------------------------|
----------------------|-------------------|------------------------|


    TH                 
    W.                 
--<>1----------------||
---------------------||
---------------------||
---------------------||
---------------------||
---------------------||




Duration Legend
---------------
W - whole
H - half
Q - quarter
E - 8th
S - 16th
T - 32nd
X - 64th
. - note dotted
|-n-|  - n-tuplets


Tablature Legend
----------------
L - tied note
x - dead note
g - grace note
(n) - ghost note
> - accentuded note
NH - natural harmonic
AH - artificial harmonic
TH - tapped harmonic
SH - semi harmonic
PH - pitch harmonic
h - hammer on
p - pull off
b - bend
br - bendRelease
pb - preBend
pbr - preBendRelease
brb - bendReleaseBend
\n/ - tremolo bar dip
\n - tremolo bar dive
-/n - tremolo bar Release up
/n\ - tremolo bar inverted dip
/n - tremolo bar return
-\n - tremolo bar Release down
S - shift slide
s - legato slide
/ -  slide into from below or out of upwards
\ -  slide into from above or out of downwards
~ - vibrato
W - wide vibrato
tr - trill
TP - tremolo picking
T - tapping
S - slap
P - pop
< - fade in
^ - brush up
v - brush down
Login or Register to remove this ad.

2 comments on Naminé

thankyou for tabbing this

thankyou for tabbing this one!!! i like it

Your Welcome

More kh stuff coming soon ^-^