Ads

Hollow Bastion (Kingdom Hearts 2) Bass/Guitar Tab

Submitted: Aug 04, 2015 by rafapott

5
Average: 5 (2 votes)
Download | Listen
Game: Kingdom Hearts 2
Composer(s): Yoko Shimomura
Style: 2 or more instruments, Transcription
Series: Kingdom Hearts

AutoScroll: Slow | Medium | Fast
                                Hollow Bastion                                  



                                                    Square Enix - YĆ“ko Shimomura

This is a transcription of the song. I tried to write as many instruments from it as I could. 

This tab is mostly for piano, I guess... Well, check the GuitarPro file in the downloads

Piano 1



     D                                                                  
     S S S S S S S S S S    S S S S S S S S S S    S S S S S S S S S S  
E||--------7-----------9-|--------7-----------9-|--------7-----------9-|
B||--7-8-7---7-8-7-8-7---|--7-8-7---7-8-7-8-7---|--7-8-7---7-8-7-8-7---|
G||----------------------|----------------------|----------------------|
D||----------------------|----------------------|----------------------|
A||----------------------|----------------------|----------------------|
E||----------------------|----------------------|----------------------|


  S S S S S S S S S S    S S S S S S S S S S    S S S S S S S S S S  
--------7-----------9-|--------7-----------9-|--------7-----------9-|
--7-8-7---7-8-7-8-7---|--7-8-7---7-8-7-8-7---|--7-8-7---7-8-7-8-7---|
----------------------|----------------------|----------------------|
----------------------|----------------------|----------------------|
----------------------|----------------------|----------------------|
----------------------|----------------------|----------------------|


   S S S  S  S S  S S  S  S     S S  S  S  S  S  S S  S S  
--10-9-7-12-10-9-10-9-10-12-|--10-9-10-14-12-10-12-9-10-7-|
----------------------------|-----------------------------|
----------------------------|-----------------------------|
----------------------------|-----------------------------|
----------------------------|-----------------------------|
----------------------------|-----------------------------|


    S S S S S S S S S S    S S S S S S S S S S     S S S  S  S S  S S  S  S  
|---------7-----------9-|--------7-----------9-|--10-9-7-12-10-9-10-9-10-12-|
|---7-8-7---7-8-7-8-7---|--7-8-7---7-8-7-8-7---|----------------------------|
|*----------------------|----------------------|----------------------------|
|*----------------------|----------------------|----------------------------|
|-----------------------|----------------------|----------------------------|
|-----------------------|----------------------|----------------------------|


   S S  S  S  S  S  S S  S S    S S S S S S S S S S    S S S S S S S S S S  
--10-9-10-14-12-10-12-9-10-7-|--------7-----------9-|--------7-----------9-|
-----------------------------|--7-8-7---7-8-7-8-7---|--7-8-7---7-8-7-8-7---|
-----------------------------|----------------------|----------------------|
-----------------------------|----------------------|----------------------|
-----------------------------|----------------------|----------------------|
-----------------------------|----------------------|----------------------|


   S S S  S  S S  S S  S  S     S S  S  S  S  S  S S  S S                      
--10-9-7-12-10-9-10-9-10-12-|--10-9-10-14-12-10-12-9-10-7-|----|----|----|----|
----------------------------|-----------------------------|----|----|----|----|
----------------------------|-----------------------------|----|----|----|----|
----------------------------|-----------------------------|----|----|----|----|
----------------------------|-----------------------------|----|----|----|----|
----------------------------|-----------------------------|----|----|----|----|


  S S S S S S S S S S    S S S S S S S S S S     S S S  S  S S  S S  S  S  
--------7-----------9-|--------7-----------9-|--10-9-7-12-10-9-10-9-10-12-|
--7-8-7---7-8-7-8-7---|--7-8-7---7-8-7-8-7---|----------------------------|
----------------------|----------------------|----------------------------|
----------------------|----------------------|----------------------------|
----------------------|----------------------|----------------------------|
----------------------|----------------------|----------------------------|


   S S  S  S  S  S  S S  S S    S S S S S S S S S S    S S S S S S S S S S  
--10-9-10-14-12-10-12-9-10-7-|--------7-----------9-|--------7-----------9-|
-----------------------------|--7-8-7---7-8-7-8-7---|--7-8-7---7-8-7-8-7---|
-----------------------------|----------------------|----------------------|
-----------------------------|----------------------|----------------------|
-----------------------------|----------------------|----------------------|
-----------------------------|----------------------|----------------------|


   S S S  S  S S  S S  S  S     S S  S  S  S  S  S S  S S  
--10-9-7-12-10-9-10-9-10-12-|--10-9-10-14-12-10-12-9-10-7-|
----------------------------|-----------------------------|
----------------------------|-----------------------------|
----------------------------|-----------------------------|
----------------------------|-----------------------------|
----------------------------|-----------------------------|


  S S S S S S S S S S    S S S S S S S S S S     S  S S  S  S  S  S  S  S  S  
--------7-----------9-|--------7-----------9-|--12-10-9-14-12-10-12-10-12-14-|
--7-8-7---7-8-7-8-7---|--7-8-7---7-8-7-8-7---|-------------------------------|
----------------------|----------------------|-------------------------------|
----------------------|----------------------|-------------------------------|
----------------------|----------------------|-------------------------------|
----------------------|----------------------|-------------------------------|


   S  S  S  S  S  S  S  S  S  S    S S S S S S S S S S    S S S S S S S S S S  
--12-10-12-15-14-12-14-12-14-10-|--------7-----------9-|--------7-----------9-|
--------------------------------|--7-8-7---7-8-7-8-7---|--7-8-7---7-8-7-8-7---|
--------------------------------|----------------------|----------------------|
--------------------------------|----------------------|----------------------|
--------------------------------|----------------------|----------------------|
--------------------------------|----------------------|----------------------|


   S  S S  S  S  S  S  S  S  S     S  S  S  S  S  S  S  S  S  S  
--12-10-9-14-12-10-12-10-12-14-|--12-10-12-15-14-12-14-12-14-10-|
-------------------------------|--------------------------------|
-------------------------------|--------------------------------|
-------------------------------|--------------------------------|
-------------------------------|--------------------------------|
-------------------------------|--------------------------------|


  S S S S S S S S S S    S S S S S S S S S S     S S S  S  S S  S S  S  S  
--------7-----------9-|--------7-----------9-|--10-9-7-12-10-9-10-9-10-12-|
--7-8-7---7-8-7-8-7---|--7-8-7---7-8-7-8-7---|----------------------------|
----------------------|----------------------|----------------------------|
----------------------|----------------------|----------------------------|
----------------------|----------------------|----------------------------|
----------------------|----------------------|----------------------------|


   S S  S  S  S  S  S S  S S    S S S S S S S S S S    S S S S S S S S S S  
--10-9-10-14-12-10-12-9-10-7-|--------7-----------9-|--------7-----------9-|
-----------------------------|--7-8-7---7-8-7-8-7---|--7-8-7---7-8-7-8-7---|
-----------------------------|----------------------|----------------------|
-----------------------------|----------------------|----------------------|
-----------------------------|----------------------|----------------------|
-----------------------------|----------------------|----------------------|


   S S S  S  S S  S S  S  S     S S  S  S  S  S  S S  S S    
--10-9-7-12-10-9-10-9-10-12-|--10-9-10-14-12-10-12-9-10-7--||
----------------------------|------------------------------||
----------------------------|-----------------------------*||
----------------------------|-----------------------------*||
----------------------------|------------------------------||
----------------------------|------------------------------||




Bass 2



                             S E  S E  S S S S    S E  S E  S S S S  
G||-------|-------|-------|--------------------|--------------------|
D||-------|-------|-------|--------------------|--------------------|
A||-------|-------|-------|--2----2------------|--2----2----2---2---|
E||-------|-------|-------|------------2---3---|--------------------|


  S E  S E  S S S S    S E  S E  S S S S    S E  S E  S S S S  
--------------------|--------------------|--------------------|
--------------------|-------2----0-------|--------------------|
--2----2----2---2---|--2-------------4---|--2----2----2-------|
--------------------|--------------------|----------------3---|


    S E  S E  S S S S    S E  S E  S S S S    S E  S E  S S S S  
|---------------------|--------------------|--------------------|
|*--------------------|--------------------|-------2----0-------|
|*--2----2----2---2---|--2----2----2---2---|--2-------------4---|
|---------------------|--------------------|--------------------|


  S E  S E  S S S S    S E  S E  S S S S    S E  S E  S S S S  
--------------------|--------------------|--------------------|
--------------------|--------------------|--------------------|
--2----2----2-------|--2----2----2---2---|--2----2----2---2---|
----------------3---|--------------------|--------------------|


  S E  S E  S S S S    S E  S E  S S S S    S E  S E  S S S S  
--------------------|--------------------|--------------------|
-------2----0-------|--------------------|--------------------|
--2-------------4---|--2----2----2-------|--0----0----2---2---|
--------------------|----------------3---|--------------------|


  S E  S E  S S S S    S E  S E  S S S S    S E  S E  S S S S                 
--------------------|--------------------|--------------------|----|----|----|
--------------------|--------------------|--------------------|----|----|----|
--4----4----0---0---|--0----0----2---2---|--4----4----0---0---|----|----|----|
--------------------|--------------------|--------------------|----|----|----|


       S E  S E  S S S S    S E  S E  S S S S    S E  S E  S S S S  
----|--------------------|--------------------|--------------------|
----|--------------------|--------------------|-------2----0-------|
----|--2----2----2---2---|--2----2----2---2---|--2-------------4---|
----|--------------------|--------------------|--------------------|


  S E  S E  S S S S    S E  S E  S S S S    S E  S E  S S S S  
--------------------|--------------------|--------------------|
--------------------|--------------------|--------------------|
--2----2----2-------|--2----2----2---2---|--2----2----2---2---|
----------------3---|--------------------|--------------------|


  S E  S E  S S S S    S E  S E  S S S S    S E  S E  S S S S  
--------------------|--------------------|--------------------|
--------------------|--------------------|--------------------|
--5----5----5---5---|--5----5----5---5---|--2----2----2---2---|
--------------------|--------------------|--------------------|


  S E  S E  S S S S    S E  S E  S S S S    S E  S E  S S S S       
--------------------|--------------------|--------------------|----|
--------------------|--------------------|--------------------|----|
--2----2----2---2---|--5----5----5---5---|--5----5----5---5---|----|
--------------------|--------------------|--------------------|----|


  S E  S E  S S S S    S E  S E  S S S S    S E  S E  S S S S  
--------------------|--------------------|--------------------|
--------------------|-------2----0-------|--------------------|
--2----2----2---2---|--2-------------4---|--2----2----2-------|
--------------------|--------------------|----------------3---|


  S E  S E  S S S S    S E  S E  S S S S    S E  S E  S S S S  
--------------------|--------------------|--------------------|
--------------------|--------------------|-------2----0-------|
--2----2----2---2---|--2----2----2---2---|--2-------------4---|
--------------------|--------------------|--------------------|


  S E  S E  S S S S    
---------------------||
--------------------*||
--2----2----2-------*||
----------------3----||
Login or Register to remove this ad.