Ads

Dearly Beloved (Reprise) (Kingdom Hearts 2) Guitar Tab

Submitted: Sep 05, 2012 by scarecrowlol

4.90909
Average: 4.9 (11 votes)
Download | Listen
Game: Kingdom Hearts 2
Composer(s): Yoko Shimomura
Style: Arrangement, Fingerstyle
Series: Kingdom Hearts

AutoScroll: Slow | Medium | Fast
Title: Dearly Beloved (Reprise)
SubTitle: Kingdom Hearts 2
Artist: Yoko Shimomura
Music: Tabbed by Mitch Jackson
Tempo = 60

Capo 1
                                                               ^                                              ^     
     E  E  E  E  Q     Q          E  E  E  E  Q     Q          E  E  E  E  Q     Q          E  E  E  E  Q     Q                                                        
E |--7-----------------9-------|--7-----------------9-------|--10----9-----14----12------|--10----9-----7-------------|
B |--------7-----5-------------|--------7-----5-------------|--7-------------------------|--------------------10------|
G |--------------7-------------|--------------6-------------|--7-------------------------|--------------------9-------|
D |--------7--5----------------|--------9--7----------------|----------------------------|--------------7-----0-------|
A |-----5----------------------|-----7----------------------|-----0--7--9----------------|-----0--7--9----------------|
D |--5-------------------------|--7-------------------------|--0-------------------------|--0-------------------------|

                                                               ^                                              ^           
     E  E  E  E  Q     Q          E  E  E  E  Q     Q          E  E  E  E  Q     Q          E  E  E  E  Q     Q           
  |--7-----------------9-------|--7-----------------9-------|--10----9-----14----12------|--10----9-----7-----5-------|
  |--------7-----5-------------|--------7-----5-------------|----------------------------|----------------------------|
  |--------------7-------------|--------------6-------------|--11------------------------|--------------7-----6-------|
  |--------7--5----------------|--------9--7----------------|--------11-9--12------------|--------11-9--------7-------|
  |-----5----------------------|-----7----------------------|-----9----------------------|-----9----------------------|
  |--5-------------------------|--7-------------------------|--9-------------------------|--9-----------------4-------|

                                                               ^  
     E  E  E  E  Q     E  E       E  E  E  E  Q     Q          E  E  E  E  Q     E  E       E  E  E  E  Q     Q                                                                    
  |--7-----------------9--5----|--7-------------------------|----------------------------|----------------------------|
  |----------------------------|--------7-------------------|--7-----------------8--10---|--7-----7-------------------|
  |----------------------------|--------------------9-------|--7-------------------------|-----9----------------------|
  |--------7--5--9-------------|--------9--7--11------------|--------------7-------------|--------------7-------------|
  |-----5----------------------|-----7----------------------|-----0--7--9----------------|-----0--7--9--------5-------|
  |--5-------------------------|--7-------------------------|--0-------------------------|--0-----------------0-------|

                                                                                            ^                 ^              
     E  E  E  E  Q     E  E       E  E  E  E  Q     Q          E  E  E  E  Q     Q          E  E  E  E  E  E  Q                                                                    
  |--7-----------------9--5----|--7-------------------------|--10-9----------------------|----------------------------|
  |----------------------------|--------7-------------------|--------12------------------|--12-------------5----------|
  |----------------------------|--------------------9-------|--------------------11------|--------11----7-------------|
  |--------7--5--9-------------|--------9--7--11------------|--------11-9--12------------|--9-----11-9--------7-------|
  |-----5----------------------|-----7----------------------|-----9----------------------|-----9----------------------|
  |--5-------------------------|--7-------------------------|--9-------------------------|--9-----------------7-------|

                                                               ^                                              ^        
     E  E  E  E  Q     Q          E  E  E  E  Q     Q          E  E  E  E  Q     Q          E  E  E  E  Q     Q                                                                    
  |--7-----------------9-------|--7-----------------9-------|--10----9-----14----12------|--10----9-----7-------------|
  |--------7-----5-------------|--------7-----5-------------|--7-------------------------|--------------------10------|
  |--------------7-------------|--------------6-------------|--7-------------------------|--------------------9-------|
  |--------7--5----------------|--------9--7----------------|--------------7-------------|--------------7-----0-------|
  |-----5----------------------|-----7----------------------|-----0--7--9----------------|-----0--7--9----------------|
  |--5-------------------------|--7-------------------------|--0-------------------------|--0-------------------------|

                                                               ^                                              ^        
     E  E  E  E  Q     Q          E  E  E  E  Q     Q          E  E  E  E  Q     Q          E  E  E  E  Q     Q                                                                      
  |--7-----------------9-------|--7-----------------9-------|--10----9-----14----12------|--10----9-----7-----5-------|
  |--------7-----5-------------|--------7-----5-------------|----------------------------|----------------------------|
  |--------------7-------------|--------------6-------------|--11------------------------|--------------7-----6-------|
  |--------7--5----------------|--------9--7----------------|--------11-9--12------------|--------11-9--------7-------|
  |-----5----------------------|-----7----------------------|-----9----------------------|-----9----------------------|
  |--5-------------------------|--7-------------------------|--9-------------------------|--9-----------------4-------|

                                                               ^                                                       
     E  E  E  E  Q     E  E       E  E  E  E  Q     Q          E  E  E  E  Q     E  E       E  E  E  E  Q     Q                                                                    
  |--7-----------------9--5----|--7-------------------------|----------------------------|----------------------------|
  |----------------------------|--------7-------------------|--7-----------------8--10---|--7-----7-------------------|
  |----------------------------|--------------------9-------|--7-------------------------|-----9----------------------|
  |--------7--5--9-------------|--------9--7--11------------|--------------7-------------|--------------7-------------|
  |-----5----------------------|-----7----------------------|-----0--7--9----------------|-----0--7--9--------5-------|
  |--5-------------------------|--7-------------------------|--0-------------------------|--0-----------------0-------|

                                                                                            ^                 ^                 
     E  E  E  E  Q     E  E       E  E  E  E  Q     Q          E  E  E  E  Q     Q          E  E  E  E  E  E  Q                                                                    
  |--7-----------------9--5----|--7-------------------------|--10-9----------------------|----------------------------|
  |----------------------------|--------7-------------------|--------12------------------|--12-------------5----------|
  |----------------------------|--------------------9-------|--------------------11------|--------11----7-------------|
  |--------7--5--9-------------|--------9--7--11------------|--------11-9--12------------|--9-----11-9--------7-------|
  |-----5----------------------|-----7----------------------|-----9----------------------|-----9----------------------|
  |--5-------------------------|--7-------------------------|--9-------------------------|--9-----------------7-------|
                                                            BPM=45
   Decrescendo                                                 ^           ^
     E  E  E  E  Q     Q          E  E  E  E  Q     Q          E  E  E  E  H                W                                                                
  |--7-----------------9-------|--7-----------------9-------|--10----9-------------------|----------------------------||
  |--------7-----5-------------|--------7-----5-------------|--7-----------10------------|--L-------------------------||
  |--------------7-------------|--------------6-------------|--7-----------7-------------|--L-------------------------||
  |--------7--5----------------|--------9--7----------------|--------------7-------------|--L-------------------------||
  |-----5----------------------|-----7----------------------|-----0--7--9----------------|----------------------------||
  |--5-------------------------|--7-------------------------|--0-----------0-------------|--L-------------------------||

Login or Register to remove this ad.

4 comments on Dearly Beloved (Reprise)

Capo?

Really doesn't seem like you need it for this song but still not to shabby

ye i wasn't expecting to need

ye i wasn't expecting to need a capo either but it keeps the bass line perfect for allowing higher notes to be played :D

Why should capo be an issue ?

5

Why should capo be an issue ? It should be basic equipment for every guitarist.

Sounds great! 5 stars!

I registered to vote this 5 stars

5

My favorite bit of Dearly beloved is not the main part that starts out, its the more emotional "bridge" and this tab has my favorite version ive heard of it.