Ads

The Sunset Sky Part VI (The King of Fighters '95) Guitar Tab

Submitted: Jan 06, 2012 by finalthrash

0
Download | Listen
Game: The King of Fighters '95
Composer(s): SNK Sound Team
Style: Transcription

AutoScroll: Slow | Medium | Fast
The King of Fighters '95	THE SUNSET SKY PART6 ~LIEBE 
SNK Sound Team
Tabbed by finalthrash
1/4/12

E	-------------------------------------------
B	-------------------------------------------
G	(10)-7--------------(10)-7-----------------
D	----------8-86----------------8-86---------
A	---------------(10)8---------------(10)87--
E	-------------------------------------------

E	(10)87------------55----------------77(10)-(10)-(10)--
B	------8--------334-------------8----------------------
G	-------7-754--------------4574------------------------
D	------------5-----------57----5-----------------------
A	-------------5-------556------------------------------
E	------------------------------------------------------

E	(10)87------------55--------------------------------
B	------8--------334-------------8----(12)(12)--(11)--
G	-------7-754--------------4574----------------------
D	------------5-----------57----5---------------------
A	-------------5-------556----------------------------
E	----------------------------------------------------

E	-----------------(18)-(18)--(16)(15)(14)----------------(13)----------------------(14)(13)--(11)(10)--
B	9(11)(13)(15)(16)-----------------------(11)(13)(15)(16)----(15)(11)(11)--(11)(13)--------------------
G	------------------------------------------------------------------------------------------------------
D	------------------------------------------------------------------------------------------------------
A	------------------------------------------------------------------------------------------------------
E	------------------------------------------------------------------------------------------------------




Login or Register to remove this ad.