Ads

HAL, Bass and Melody (The King of Fighters '95) Guitar Tab

Submitted: Jan 06, 2012 by finalthrash

0
Download | Listen
Game: The King of Fighters '95
Composer(s): SNK Sound Team
Style: Transcription

AutoScroll: Slow | Medium | Fast
the King of Fighters '95	HAL to Base to Melody to
SNK Sound Team
Tabbed by finalthrash
1/4/12

E	--------
B	77-77---
G	77-77---
D	--------
A	--------
E	--------

E	----------------------------------------
B	----------------------------------------
G	----------------------------------------
D	9-9-9----9-9-9----79-79-79----79-79-79--
A	7-7-7----7-7-7----57-57-57----57-57-57--
E	----------------------------------------

E	------------------------------------------------
B	------------------------------------------------
G	------------------------------------------------
D	----7------7--------7------7----9-9-9----9-9-9--
A	7-5-5--7-5-5-8--7-5-5--7-5-5-9--7-7-7----7-7-7--
E	5-3----5-3---6--5-3----5-3---7------------------

E	-------------------------------------------------------
B	-------------------------------------------------------
G	-------------------------------------------------------
D	----7------7--------7---88-7-77---------7-7-7-7-7-7-7--
A	7-5-5--7-5-5-8--7-5-5---66-5-55-9--9----5-5-5-5-5-5-5--
E	5-3----5-3---6--5-3-------------7--7-------------------


Login or Register to remove this ad.