Ads

Club-M Aozora ni Flute (The King of Fighters '95) Guitar Tab

Submitted: Jan 06, 2012 by finalthrash

0
Download | Listen
Game: The King of Fighters '95
Composer(s): SNK Sound Team
Style: Transcription

AutoScroll: Slow | Medium | Fast
The King of Fighters '95	CLUB-M ~Aozora ni Flute~
SNK Sound Team
Tabbed by finalthrash
1/4/12

E	----------------------------------------------------------
B	----------------------------------------------------------
G	----------------------------------------------------------
D	----------------------------(10)(10)9-(10)-(10)(10)(10)9--
A	----------------------------------------------------------
E	578-(10)-87-(12)-(10)87-875-------------------------------

E	---------------------------------------------------------------------------------------
B	---------------------------------------------------------------------------------------
G	---------------------------------------------------------------------------------------
D	---------------------------------------------------------------------------------------
A	7-7--7(14)(13)(12)--2-2--(10)-(10)9(10)9(10)--7-7--7(14)(13)(12)--2-2-(10)-(10)9(10)9--
E	5-5--5(12)(11)(10)--0-0---8----8--7-8--7-8----5-5--5(12)(11)(10)--0-0--8----8--7-8--7--

E	---------------------------------------------------------------------------------
B	---------------------------------------------------------------------------------
G	---------------------------------------------------------------------------------
D	----------------------------------------------------------------------(12)----9--
A	7-7--7(14)(13)(12)--2-2--(10)-(10)9(10)9(10)--7-7--7(14)(13)(12)--22--(10)(12)7--
E	5-5--5(12)(11)(10)--0-0---8----8--7-8--7-8----5-5--5(12)(11)(10)--00------(10)---

E	------------------------------------------------
B	------------------------------------------------
G	------------------------------------------------
D	-----5--5------------------5--5-9-9-99----------
A	3--3-3--3-8--8-7-7--5-3--3-3--3-7-7-77--7587----
E	1--1------6--6-5-5--3-1--1------------------85--

E	-------------------------------------------------
B	-------------------------------------------------
G	-------------------------------------------------
D	-------------------------------------------------
A	8--8-8-------7-8--8--83--83--8--8-8-------8-7----
E	6--6-6--5431-5-6--6--61--61--6--6-6--5431-6-5----





Login or Register to remove this ad.