Ads

Ketsutou R&D (The King of Fighters '94) Guitar Tab

Submitted: Jan 06, 2012 by finalthrash

0
Download | Listen
Game: The King of Fighters '94
Composer(s): SNK Sound Team
Style: Transcription

This song is also called Rugal Bernstein Battle 2

AutoScroll: Slow | Medium | Fast
The King of Fighters '94	Kecchaku R&D
SNK Sound Team
Tabbed by finalthrash
1/4/12

E	------------------------------------
B	------------------------------------
G	------------------------------------
D	----------------------9--9(10)(10)--
A	5-775-5-775-5-77577-5-7--7-8---8----
E	3-553-3-553-3-55355-3---------------

E	----------------
B	5--5--5--6-5-3--
G	-22-2--2--2-2-2-
D	----------------
A	----------------
E	----------------

E	------------------------------------------
B	------------------------------------------
G	--97----6764-----------------------67-67--
D	-7----------7-587-----254------3456-------
A	8------------7-------4-----4567-----------
E	------------------------------------------

E	---------------------------------------------------------------------
B	----------78-78--------------78-78--------------78-78----------------
G	---789(10)------------789(10)------------789(10)------------789(10)--
D	789----------------789----------------789----------------789---------
A	---------------------------------------------------------------------
E	---------------------------------------------------------------------


Login or Register to remove this ad.