Login or Register to remove this ad.

Rumbling on the City (The King of Fighters '96) Bass/Guitar Tab

Submitted: Sep 03, 2017 by Bessem

5
Average: 5 (1 vote)
Download | Listen
Game: The King of Fighters '96
Composer(s): SNK Sound Team
Style: 2 or more instruments, Transcription

Click here for a video example.

AutoScroll: Slow | Medium | Fast
                             Rumbling on the City                               


Piste 1

     W                   Q    Q.     Q.        H        E  E  E  E   
E||-------------------|---------------------|-----------------------|
B||-------------------|---------------------|-----------------------|
G||-------------------|---------------------|-----------------------|
D||-------------------|--------------3------|--5--------5--5--5--5--|
A||-------------------|-------5------1------|--3--------3--3--3--3--|
E||-------------------|-------3-------------|-----------------------|


  E  E  Q.     Q.        Q.     Q.     Q       E  E  Q.     Q.      
----------------------|---------------------|----------------------|
----------------------|---------------------|----------------------|
----------------------|---------------------|----------------------|
--5--5----------------|---------------------|---------------3------|
--3--3--3------5------|--3------5------3----|--3--3--5------1------|
--------1------3------|--1------3------1----|--1--1--3-------------|


  H        E  E  E  E     E  E  Q.     Q.        Q.     E  E  E  Q     
-----------------------|----------------------|-----------------------|
-----------------------|----------------------|-----------------------|
-----------------------|----------------------|-----------------------|
--5--------5--5--5--5--|--5--5----------------|------------------5----|
--3--------3--3--3--3--|--3--3--3------5------|--3------5--5--5--3----|
-----------------------|--------1------3------|--1------3--3--3-------|


  E  E  E  Q    E  Q       E  Q    E  E  Q    E     E  E  E  Q    E  Q     
------------------------|------------------------|------------------------|
------------------------|------------------------|------------------------|
------------------------|------------------------|------------------------|
--3--4--5---------------|-----3-------3--5----5--|--3--4--5---------------|
--1--2--3--3----4--5----|-----1----5--1--3----3--|--1--2--3--3----4--5----|
-----------1----2--3----|----------3-------------|-----------1----2--3----|


  E  Q    E  E  E  Q       E  E  E  Q    E  Q       E  Q    E  E  Q    E   
------------------------|------------------------|------------------------|
------------------------|------------------------|------------------------|
------------------------|------------------------|------------------------|
-----3-------3--5--3----|--3--4--5---------------|-----3-------3--5----5--|
-----1----5--1--3--1----|--1--2--3--3----4--5----|-----1----5--1--3----3--|
----------3-------------|-----------1----2--3----|----------3-------------|


                                                          PM PM PM PM PM PM  
  E  E  E  Q    E  Q       E  Q    E  E  E  E  E     Q    E  E  E  E  E  E   
------------------------|-------------------------|-------------------------|
------------------------|-------------------------|-------------------------|
------------------------|-------------------------|-------------------------|
--3--4--5---------------|-----3-------3--5--3--5--|--L----------------------|
--1--2--3--3----4--5----|-----1----5--1--3--1--3--|--L----3--3--3--3--3--3--|
-----------1----2--3----|----------3--------------|-------------------------|


  PM PM PM PM PM PM PM PM    PM PM PM PM PM PM PM PM                          
  E  E  E  E  E  E  E  E     E  E  E  E  E  E  E  E     E  Q    Q    Q    E   
--------------------------|--------------------------|-----------------------|
--------------------------|--------------------------|-----------------------|
--------------------------|--------------------------|-----------------------|
--------------------------|--------------------------|-----------------------|
--3--3--3--3--3--3--3--3--|--3--3--1--3--3--3--1--3--|--3--3----1------------|
--------------------------|--------------------------|---------------3----1--|


  E  E  E  Q    E  Q       E  Q    E  E  Q    E     E  E  E  Q    E  Q     
------------------------|------------------------|------------------------|
------------------------|------------------------|------------------------|
------------------------|------------------------|------------------------|
--3--4--5---------------|-----3-------3--5----5--|--3--4--5---------------|
--1--2--3--3----4--5----|-----1----5--1--3----3--|--1--2--3--3----4--5----|
-----------1----2--3----|----------3-------------|-----------1----2--3----|


                                 PM PM PM PM PM PM    PM PM PM PM PM PM PM PM  
  E  Q    E  E  E  E  E     Q    E  E  E  E  E  E     E  E  E  E  E  E  E  E   
-------------------------|-------------------------|--------------------------|
-------------------------|-------------------------|--------------------------|
-------------------------|-------------------------|--------------------------|
-----3-------3--5--3--5--|--L----------------------|--------------------------|
-----1----5--1--3--1--3--|--L----3--3--3--3--3--3--|--3--3--3--3--3--3--3--3--|
----------3--------------|-------------------------|--------------------------|


  PM PM PM PM PM PM PM PM                                                     
  E  E  E  E  E  E  E  E     E  Q    Q    Q    E     E  E  E  E  E  E  E  E   
--------------------------|-----------------------|--------------------------|
--------------------------|-----------------------|--------------------------|
--------------------------|-----------------------|--------------------------|
--------------------------|-----------------------|--3--4--5-----------3--4--|
--3--3--1--3--3--3--1--3--|--3--3----1------------|--1--2--3--3--4--5--1--2--|
--------------------------|---------------3----1--|-----------1--2--3--------|


  E  E  E  E  E  E  E  E     E  E  E  E  E  E  E  E   
--------------------------|--------------------------|
--------------------------|--------------------------|
--------------------------|--------------------------|
--5-----------3--5--3-----|--3--4--5-----------3--4--|
--3--3--4--5--1--3--1-----|--1--2--3--3--4--5--1--2--|
-----1--2--3--------------|-----------1--2--3--------|


  E  E  E  E  E  E  E  E     E  E  E  E  E  E  E  E   
--------------------------|--------------------------|
--------------------------|--------------------------|
--------------------------|--------------------------|
--5-----------3--5--3-----|--3--4--5-----------3--4--|
--3--3--4--5--1--3--1--5--|--1--2--3--3--4--5--1--2--|
-----1--2--3-----------3--|-----------1--2--3--------|


  E  E  E  E  E  E  E  E     E  E  E  E  E  E  E  E   
--------------------------|--------------------------|
--------------------------|--------------------------|
--------------------------|--------------------------|
--5-----------3--5--3-----|--3--4--5-----------3--4--|
--3--3--4--5--1--3--1-----|--1--2--3--3--4--5--1--2--|
-----1--2--3--------------|-----------1--2--3--------|


  E  E  E  E  E  E  E  E     H        E  Q.        H        H         
--------------------------|---------------------|--------------------|
--------------------------|---------------------|--------------------|
--------------------------|---------------------|--------------------|
--5-----------3--5--3-----|---------------------|--------------------|
--3--3--4--5--1--3--1--5--|--L--------L--5------|--3--------3--------|
-----1--2--3-----------3--|--L--------L--3------|--1--------1--------|


  H        E  Q.        S S Q.     S S Q.        H        Q    Q     
---------------------|------------------------|---------------------|
---------------------|------------------------|---------------------|
---------------------|------------------------|---------------------|
--5--------L--5------|--5---5-----------------|---------------------|
--3--------L--3------|--3---3------3---3------|--5--------5----5----|
---------------------|-------------1---1------|--3--------3----3----|


  H        Q    Q       H.           E  E     S S Q.     S S Q.      
---------------------|---------------------|------------------------|
---------------------|---------------------|------------------------|
---------------------|---------------------|------------------------|
---------------------|--5------------5--5--|--5---5-----------------|
--3--------3----3----|--3------------3--3--|--3---3------3---3------|
--1--------1----1----|---------------------|-------------1---1------|


  E  Q    Q    Q    E     E  E  E  E  E  Q.        E  Q    Q    Q    E   
-----------------------|------------------------|--0--------------------|
-----------------------|-----------0--3--0------|-----------------------|
--------------------2--|--L-----2---------------|----------0---------2--|
--2------------6-------|-----6--------0--2------|--2--2---------6-------|
--------------------0--|--L-----0--2------------|--------------------0--|
-----0----3----4-------|-----4------------------|-----0----3----4-------|


  E  E  E  E  E  E  Q       E  Q    Q    Q    E     E  E  E  E  E  Q.      
-------------------------|--0--------------------|------------------------|
-----------0--3--0-------|-----------------------|-----------0--3--0------|
--L-----2-----------2----|----------0---------2--|--L-----2---------------|
-----6--------0--2--0----|--2--2---------6-------|-----6--------0--2------|
--L-----0--2-------------|--------------------0--|--L-----0--2------------|
-----4-------------------|-----0----3----4-------|-----4------------------|


  E  Q    Q    Q    E     E  E  E  E  E  E  Q       E  Q    Q    Q    E   
--0--------------------|-------------------------|--0--------------------|
-----------------------|-----------0--3--0-------|-----------------------|
----------0---------2--|--L-----2-----------2----|----------0---------2--|
--2--2---------6-------|-----6--------0--2--0----|--2--2---------6----0--|
--------------------0--|--L-----0--2-------------|--------------------0--|
-----0----3----4-------|-----4-------------------|-----0----3----4-------|


  W                   Q    Q    Q    Q       E  E  E  Q    E  Q     
-------------------|----------------------|------------------------|
-------------------|----------------------|-----0--1---------------|
--L----------------|--2----2----2----0----|--3----------------0----|
--L----------------|--0----0----0---------|-----------3----4-------|
--L----------------|--0----0----0----3----|--1--2--3---------------|
-------------------|----------------------|-----------1----2--3----|


  E  Q    E  E  Q    E     E  E  E  Q    E  Q       E  Q    E  E  E  Q     
------------------------|------------------------|------------------------|
------------------------|-----0--1---------------|------------------------|
----------------0----0--|--3----------------0----|----------------0-------|
-----3----0--3----------|-----------3----4-------|-----3----0--3-----3----|
-----1-------1--3----3--|--1--2--3---------------|-----1-------1--3--1----|
----------3-------------|-----------1----2--3----|----------3-------------|


  E  E  E  Q    E  Q       E  Q    E  E  Q    E     E  E  E  Q    E  Q      
------------------------|------------------------|------------------------||
-----0--1---------------|------------------------|-----0--1---------------||
--3----------------0----|----------------0----0--|--3----------------0----||
-----------3----4-------|-----3----0--3----------|-----------3----4-------||
--1--2--3---------------|-----1-------1--3----3--|--1--2--3---------------||
-----------1----2--3----|----------3-------------|-----------1----2--3----||

                      


Piste 2

     W                   W                   E  E   E  E   E.    S  E    E   
E||-------------------|-------------------|---------------------------------|
B||-------------------|-------------------|------------8--------------------|
G||-------------------|-------------------|-----7--10-----------------------|
D||-------------------|-------------------|---------------10br---8----------|
A||-------------------|-------------------|------------------------10--<>8--|
E||-------------------|-------------------|---------------------------------|


  \2                                                        
  W                   W                   W                 
-------------------|-------------------|-------------------|
-------------------|-------------------|-------------------|
-------------------|-------------------|-------------------|
-------------------|-------------------|-------------------|
--L----------------|-------------------|-------------------|
-------------------|-------------------|-------------------|


  E   E     Q     E     E   Q       Q    S H        E.     W                 
---------------------------15----|--L----L--------------|-------------------|
-----14br--11----14br--11--------|----------------------|-------------------|
---------------------------------|----------------------|-------------------|
---------------------------------|----------------------|-------------------|
---------------------------------|----------------------|-------------------|
---------------------------------|----------------------|-------------------|


  W                   W                   W                   W                 
-------------------|-------------------|-------------------|-------------------|
-------------------|-------------------|-------------------|-------------------|
-------------------|-------------------|-------------------|-------------------|
-------------------|-------------------|-------------------|-------------------|
-------------------|-------------------|-------------------|-------------------|
-------------------|-------------------|-------------------|-------------------|


  W                   W                   W                   W                 
-------------------|-------------------|-------------------|-------------------|
-------------------|-------------------|-------------------|-------------------|
-------------------|-------------------|-------------------|-------------------|
-------------------|-------------------|-------------------|-------------------|
-------------------|-------------------|-------------------|-------------------|
-------------------|-------------------|-------------------|-------------------|


  W                   W                   W                   W                 
-------------------|-------------------|-------------------|-------------------|
-------------------|-------------------|-------------------|-------------------|
-------------------|-------------------|-------------------|-------------------|
-------------------|-------------------|-------------------|-------------------|
-------------------|-------------------|-------------------|-------------------|
-------------------|-------------------|-------------------|-------------------|


   H.            S E.      H.            S E.      H.            S E.   
-----------------------|-----------------------|-----------------------|
--13b------------L-----|--15b------------L-----|--16b------------L-----|
-----------------------|-----------------------|-----------------------|
-----------------------|-----------------------|-----------------------|
-----------------------|-----------------------|-----------------------|
-----------------------|-----------------------|-----------------------|


   H.            S E.     W                   W                 
-----------------------|-------------------|-------------------|
--18b------------L-----|-------------------|-------------------|
-----------------------|-------------------|-------------------|
-----------------------|-------------------|-------------------|
-----------------------|-------------------|-------------------|
-----------------------|-------------------|-------------------|


  W                   W                    H.            S E.   
-------------------|-------------------|-----------------------|
-------------------|-------------------|--13b------------L-----|
-------------------|-------------------|-----------------------|
-------------------|-------------------|-----------------------|
-------------------|-------------------|-----------------------|
-------------------|-------------------|-----------------------|


   H.            S E.      H.            S E.      H.            S E.   
-----------------------|-----------------------|-----------------------|
--15b------------L-----|--16b------------L-----|--18b------------L-----|
-----------------------|-----------------------|-----------------------|
-----------------------|-----------------------|-----------------------|
-----------------------|-----------------------|-----------------------|
-----------------------|-----------------------|-----------------------|


   E   E   E   E   E   E   E   E      E   E   E   E   E   E   E  E   
----------------------------------|---------------------------------|
----------------------------------|---------------------------------|
--10--11--12--------------10--11--|--12--------------10--12--10-----|
--------------10--11--12----------|------10--11--12-----------------|
----------------------------------|---------------------------------|
----------------------------------|---------------------------------|


   E   E   E   E   E   E   E   E      E   E   E   E   E   E   E  E   
----------------------------------|---------------------------------|
----------------------------------|---------------------------------|
--10--11--12--------------10--11--|--12--------------10--12--10-----|
--------------10--11--12----------|------10--11--12-----------------|
----------------------------------|---------------------------------|
----------------------------------|---------------------------------|


  W                   W                   W                   W                 
-------------------|-------------------|-------------------|-------------------|
-------------------|-------------------|-------------------|-------------------|
-------------------|-------------------|-------------------|-------------------|
-------------------|-------------------|-------------------|-------------------|
-------------------|-------------------|-------------------|-------------------|
-------------------|-------------------|-------------------|-------------------|


  W                   W                   W                   W                 
-------------------|-------------------|-------------------|-------------------|
-------------------|-------------------|-------------------|-------------------|
-------------------|-------------------|-------------------|-------------------|
-------------------|-------------------|-------------------|-------------------|
-------------------|-------------------|-------------------|-------------------|
-------------------|-------------------|-------------------|-------------------|


   W                    E   Q     E   E.   E.   E     Q.      Q.      Q     
---------------------|-----12-------------15---14--|--L--------------------|
--15b----------------|--L--------12--15------------|---------15------17----|
---------------------|-----------------------------|-----------------------|
---------------------|-----------------------------|-----------------------|
---------------------|-----------------------------|-----------------------|
---------------------|-----------------------------|-----------------------|


  H.            Q        W                     E   E   E   E   E.   E.   E   
---------------12----|---------------------|--12--12--12-----------15---14--|
--L------------------|--15b----------------|--------------12--15------------|
---------------------|---------------------|--------------------------------|
---------------------|---------------------|--------------------------------|
---------------------|---------------------|--------------------------------|
---------------------|---------------------|--------------------------------|


  Q.      Q.      E   E     H.            Q       W                 
--L------17--------------|---------------------|-------------------|
-----------------15--17--|--L------------17----|-------------------|
-------------------------|---------------------|-------------------|
-------------------------|---------------------|-------------------|
-------------------------|---------------------|-------------------|
-------------------------|---------------------|-------------------|


  W                   W                   W                   W                 
-------------------|-------------------|-------------------|-------------------|
-------------------|-------------------|-------------------|-------------------|
-------------------|-------------------|-------------------|-------------------|
-------------------|-------------------|-------------------|-------------------|
-------------------|-------------------|-------------------|-------------------|
-------------------|-------------------|-------------------|-------------------|


  W                   W                   W                   W                 
-------------------|-------------------|-------------------|-------------------|
-------------------|-------------------|-------------------|-------------------|
-------------------|-------------------|-------------------|-------------------|
-------------------|-------------------|-------------------|-------------------|
-------------------|-------------------|-------------------|-------------------|
-------------------|-------------------|-------------------|-------------------|


  W                  
-------------------||
-------------------||
-------------------||
-------------------||
-------------------||
-------------------||




Piste 3

     W                   W                   W                 
E||-------------------|-------------------|-------------------|
B||-------------------|-------------------|-------------------|
G||-------------------|-------------------|-------------------|
D||-------------------|-------------------|-------------------|
A||-------------------|-------------------|-------------------|
E||-------------------|-------------------|-------------------|


  W                   W                   W                   W                 
-------------------|-------------------|-------------------|-------------------|
-------------------|-------------------|-------------------|-------------------|
-------------------|-------------------|-------------------|-------------------|
-------------------|-------------------|-------------------|-------------------|
-------------------|-------------------|-------------------|-------------------|
-------------------|-------------------|-------------------|-------------------|


  W                   W                   W                   W                 
-------------------|-------------------|-------------------|-------------------|
-------------------|-------------------|-------------------|-------------------|
-------------------|-------------------|-------------------|-------------------|
-------------------|-------------------|-------------------|-------------------|
-------------------|-------------------|-------------------|-------------------|
-------------------|-------------------|-------------------|-------------------|


  W                   W                   W                   W                 
-------------------|-------------------|-------------------|-------------------|
-------------------|-------------------|-------------------|-------------------|
-------------------|-------------------|-------------------|-------------------|
-------------------|-------------------|-------------------|-------------------|
-------------------|-------------------|-------------------|-------------------|
-------------------|-------------------|-------------------|-------------------|


  W                   H.           E  E     E  E  E  E  Q    E  E   
-------------------|---------------------|--------------6-------6--|
-------------------|------------------6--|--L--7--8--6-------8-----|
-------------------|---------------------|-------------------------|
-------------------|---------------------|-------------------------|
-------------------|---------------------|-------------------------|
-------------------|---------------------|-------------------------|


     Q     E  E   E  Q.        Q     E   E   E   E   Q     
--8g10----10--8-------------|-----------13--15--13--18----|
-----------------11--8------|-------13--------------------|
----------------------------|-----------------------------|
----------------------------|-----------------------------|
----------------------------|-----------------------------|
----------------------------|-----------------------------|


  E   E   E   Q      Q     E      W                    W                 
--L--15------18b----15--------|--15-----------------|-------------------|
---------18---------------18--|--18b----------------|-------------------|
------------------------------|---------------------|-------------------|
------------------------------|---------------------|-------------------|
------------------------------|---------------------|-------------------|
------------------------------|---------------------|-------------------|


  W                   H.           E  E     E  E  E  E  Q    E  E   
-------------------|---------------------|--------------6-------6--|
-------------------|------------------6--|--L--7--8--6-------8-----|
-------------------|---------------------|-------------------------|
-------------------|---------------------|-------------------------|
-------------------|---------------------|-------------------------|
-------------------|---------------------|-------------------------|


     Q     E  E   E  Q.        Q     E   E   E   E   Q     
--8g10----10--8-------------|-----------13--15--13--18----|
-----------------11--8------|-------13--------------------|
----------------------------|-----------------------------|
----------------------------|-----------------------------|
----------------------------|-----------------------------|
----------------------------|-----------------------------|


  E   E   E   Q      Q     E      W                    W                 
--L--15------18b----15--------|--15-----------------|-------------------|
---------18---------------18--|--18b----------------|-------------------|
------------------------------|---------------------|-------------------|
------------------------------|---------------------|-------------------|
------------------------------|---------------------|-------------------|
------------------------------|---------------------|-------------------|


  W                   W                   W                   W                 
-------------------|-------------------|-------------------|-------------------|
-------------------|-------------------|-------------------|-------------------|
-------------------|-------------------|-------------------|-------------------|
-------------------|-------------------|-------------------|-------------------|
-------------------|-------------------|-------------------|-------------------|
-------------------|-------------------|-------------------|-------------------|


  W                   H.           E   E     H.           E  E   
-------------------|----------------------|---------------------|
-------------------|------------------11--|--L---------------8--|
-------------------|----------------------|---------------------|
-------------------|----------------------|---------------------|
-------------------|----------------------|---------------------|
-------------------|----------------------|---------------------|


   Q     Q    E.   E.   E      W                   H        E.  E.  S  S  
--------10----8------------|--------------------|------------------------|
--11--------------11---10--|--11----------------|--8--------L-------8-10-|
---------------------------|--------------------|------------------------|
---------------------------|--------------------|------------------------|
---------------------------|--------------------|------------------------|
---------------------------|--------------------|------------------------|


   H.           E  E      Q     Q     H            W                 
----------------------|--------10----13--------|--15----------------|
--11---------------8--|--11--------------------|--------------------|
----------------------|------------------------|--------------------|
----------------------|------------------------|--------------------|
----------------------|------------------------|--------------------|
----------------------|------------------------|--------------------|


  E   H         Q.        W                   W                 
-----18--------22------|-------------------|-------------------|
-----------------------|-------------------|-------------------|
-----------------------|-------------------|-------------------|
-----------------------|-------------------|-------------------|
-----------------------|-------------------|-------------------|
-----------------------|-------------------|-------------------|


  W                   W                   W                   W                 
-------------------|-------------------|-------------------|-------------------|
-------------------|-------------------|-------------------|-------------------|
-------------------|-------------------|-------------------|-------------------|
-------------------|-------------------|-------------------|-------------------|
-------------------|-------------------|-------------------|-------------------|
-------------------|-------------------|-------------------|-------------------|


  W                   W                   W                   W                 
-------------------|-------------------|-------------------|-------------------|
-------------------|-------------------|-------------------|-------------------|
-------------------|-------------------|-------------------|-------------------|
-------------------|-------------------|-------------------|-------------------|
-------------------|-------------------|-------------------|-------------------|
-------------------|-------------------|-------------------|-------------------|


  W                   W                   W                   W                 
-------------------|-------------------|-------------------|-------------------|
-------------------|-------------------|-------------------|-------------------|
-------------------|-------------------|-------------------|-------------------|
-------------------|-------------------|-------------------|-------------------|
-------------------|-------------------|-------------------|-------------------|
-------------------|-------------------|-------------------|-------------------|


  W                   W                   W                 
-------------------|-------------------|-------------------|
-------------------|-------------------|-------------------|
-------------------|-------------------|-------------------|
-------------------|-------------------|-------------------|
-------------------|-------------------|-------------------|
-------------------|-------------------|-------------------|


  W                  
-------------------||
-------------------||
-------------------||
-------------------||
-------------------||
-------------------||




Bass

     W                   Q    Q.     Q.        H        H         
G||-------------------|---------------------|--------------------|
D||-------------------|---------------------|--------------------|
A||-------------------|--------------1------|--3-----------------|
E||-------------------|-------3-------------|--------------------|


  Q    Q.     Q.        Q.     Q.     Q       Q    Q.     Q.      
---------------------|---------------------|---------------------|
---------------------|---------------------|---------------------|
---------------------|---------------------|--------------1------|
-------1------3------|--1------3------1----|-------3-------------|


  H        H           Q    Q.     Q.        Q.     E  Q    Q     
--------------------|---------------------|----------------------|
--------------------|---------------------|----------------------|
--3-----------------|---------------------|-----------------3----|
--------------------|-------1------3------|--1------3------------|


  E  E  E  Q    E  Q       E  Q    E  E  Q    E     E  E  E  Q    E  Q     
------------------------|------------------------|------------------------|
------------------------|------------------------|------------------------|
--1--2--3---------------|-----1-------1--3-------|--1--2--3---------------|
-----------1----2--3----|----------3-------------|-----------1----2--3----|


  E  Q    E  E  E  Q       E  E  E  Q    E  Q       E  Q    E  E  Q    E   
------------------------|------------------------|------------------------|
------------------------|------------------------|------------------------|
-----1-------1--3--1----|--1--2--3---------------|-----1-------1--3-------|
----------3-------------|-----------1----2--3----|----------3-------------|


  E  E  E  Q    E  Q       E  Q    E  E  E  E  E     Q    E  E  E  E  E  E   
------------------------|-------------------------|-------------------------|
------------------------|-------------------------|-------------------------|
--1--2--3---------------|-----1-------1--3--1--3--|--L----3--3--3--3--3--3--|
-----------1----2--3----|----------3--------------|-------------------------|


  E  E  E  E  E  E  E  E     E  E  E  E  E  E  E  E     E  Q    Q    Q    E   
--------------------------|--------------------------|-----------------------|
--------------------------|--------------------------|-----------------------|
--3--3--3--3--3--3--3--3--|--3--3--1--3--3--3--1--3--|--3--3----1------------|
--------------------------|--------------------------|---------------3----1--|


  E  E  E  Q    E  Q       E  Q    E  E  Q    E     E  E  E  Q    E  Q     
------------------------|------------------------|------------------------|
------------------------|------------------------|------------------------|
--1--2--3---------------|-----1-------1--3-------|--1--2--3---------------|
-----------1----2--3----|----------3-------------|-----------1----2--3----|


  E  Q    E  E  E  E  E     Q    E  E  E  E  E  E     E  E  E  E  E  E  E  E   
-------------------------|-------------------------|--------------------------|
-------------------------|-------------------------|--------------------------|
-----1-------1--3--1--3--|--L----3--3--3--3--3--3--|--3--3--3--3--3--3--3--3--|
----------3--------------|-------------------------|--------------------------|


  E  E  E  E  E  E  E  E     E  Q    Q    Q    E     E  E  E  E  E  E  E  E   
--------------------------|-----------------------|--------------------------|
--------------------------|-----------------------|--------------------------|
--3--3--1--3--3--3--1--3--|--3--3----1------------|--1--2--3-----------1--2--|
--------------------------|---------------3----1--|-----------1--2--3--------|


  E  E  E  E  E  E  E  E     E  E  E  E  E  E  E  E   
--------------------------|--------------------------|
--------------------------|--------------------------|
--3-----------1--3--1-----|--1--2--3-----------1--2--|
-----1--2--3--------------|-----------1--2--3--------|


  E  E  E  E  E  E  E  E     E  E   E  E  E   E  E  E   
--------------------------|----------------------------|
--------------------------|--8--9--10------------8--9--|
--3-----------1--3--1-----|------------8--9--10--------|
-----1--2--3-----------3--|----------------------------|


   E  E  E   E  E   E  E  E     E  E   E  E  E   E  E  E   
-----------------------------|----------------------------|
--10------------8--10--8-----|--8--9--10------------8--9--|
------8--9--10---------------|------------8--9--10--------|
-----------------------------|----------------------------|


   E  E  E   E  E   E  E   E     E  E  E  E  E  E  E  E   
------------------------------|--------------------------|
--10------------8--10--8------|--------------------------|
------8--9--10------------10--|--------------------------|
------------------------------|--3--3--3--3--3--3--3--3--|


  E  E  E  E  E  E  E  E     E  E  E  E  E  E  E  E     E  Q.     E  Q.      
--------------------------|--------------------------|----------------------|
--------------------------|--------------------------|----------------------|
--------------------------|--3--3--3--3--3--3--3--3--|--3--3----------------|
--1--1--1--1--1--1--1--1--|--------------------------|------------1--1------|


  E  E  E  E  E  E  E  E     E  E  E  E  E  E  E  E   
--------------------------|--------------------------|
--------------------------|--------------------------|
--------------------------|--------------------------|
--3--3--3--3--3--3--3--3--|--1--1--1--1--1--1--1--1--|


  E  E  E  E  E  E  E  E     E  Q.     E  Q.        E  Q    Q    Q    E   
--------------------------|----------------------|-----------------------|
--------------------------|----------------------|-----------------------|
--3--3--3--3--3--3--3--3--|--3--3----------------|--7-----------------0--|
--------------------------|------------1--1------|-----0----3----4-------|


  E  E  E  E  E  Q.        E  Q    Q    Q    E     E  E  E  E  E  E  Q     
------------------------|-----------------------|-------------------------|
------------------------|-----------------------|-------------------------|
--L-----------5--7------|--7--------------------|--------------5--7--5----|
-----4--5--7------------|-----0----3----4----5--|--L--4--5--7-------------|


  E  Q    Q    Q    E     E  E  E  E  E  Q.        E  Q    Q    Q    E   
-----------------------|------------------------|-----------------------|
-----------------------|------------------------|-----------------------|
--7--------------------|--------------5--7------|--7--------------------|
-----0----3----4----5--|--L--4--5--7------------|-----0----3----4----5--|


  E  E  E  E  E  E  Q       E  Q    Q    Q    E     W                 
-------------------------|-----------------------|-------------------|
-------------------------|-----------------------|-------------------|
--------------5--7--5----|--7-----------------5--|--L----------------|
--L--4--5--7-------------|-----0----3----4-------|-------------------|


  H.           Q       E  E  E  Q    E  Q       E  Q    E  E  Q    E   
--------------------|------------------------|------------------------|
--------------------|------------------------|------------------------|
--5------------3----|--1--2--3---------------|-----1-------1--3-------|
--------------------|-----------1----2--3----|----------3-------------|


  E  E  E  Q    E  Q       E  Q    E  E  E  Q       E  E  E  Q    E  Q     
------------------------|------------------------|------------------------|
------------------------|------------------------|------------------------|
--1--2--3---------------|-----1-------1--3--1----|--1--2--3---------------|
-----------1----2--3----|----------3-------------|-----------1----2--3----|


  E  Q    E  E  Q    E     E  E  E  Q    E  Q      
------------------------|------------------------||
------------------------|------------------------||
-----1-------1--3-------|--1--2--3---------------||
----------3-------------|-----------1----2--3----||
Login or Register to remove this ad.