Fairy (The King of Fighters '96) Bass/Guitar Tab

Submitted: Feb 11, 2018 by Bessem

5
Average: 5 (1 vote)
Download | Listen
Game: The King of Fighters '96
Composer(s): SNK Sound Team
Style: 2 or more instruments, Transcription

Click here for a video example.

AutoScroll: Slow | Medium | Fast
                                    Fairy                                       

Piste 1
E||-------|-------|-------|-------|-------|-------|-------|-------|-------|
B||-------|-------|-------|-------|-------|-------|-------|-------|-------|
G||-------|-------|-------|-------|-------|-------|-------|-------|-------|
D||-------|-------|-------|-------|-------|-------|-------|-------|-------|
A||-------|-------|-------|-------|-------|-------|-------|-------|-------|
E||-------|-------|-------|-------|-------|-------|-------|-------|-------|


  W                   S S T S. Q    S S Q    E     S S T S. Q    S S Q    E   
-------------------|----------------------------|----------------------------|
-------------------|----------------------------|----------------------------|
-------------------|----------------------------|----------------------------|
-------------------|------7----7--------7----7--|-----------5--------5----5--|
-------------------|--7---7----7----7---7----7--|--5---5----5----5---5----5--|
-------------------|--5--------5----5---5----5--|--3---3----3----3---3----3--|


  S S T S. Q    S S Q    T S.    Q    S S E  S S Q    T S.  
------------------------------|----------------------------|
------------------------------|----------------------------|
-----------7--------7----7-5--|--7--------7------7----7----|
--7---7----7----7---7----7-5--|--7----7---7--7---7----7----|
--5---5----5----5---5------3--|--5----5---5--5---5---------|
------------------------------|----------------------------|


  S S T S. Q    S S Q    E     S S T S. Q    S S Q    E   
----------------------------|----------------------------|
----------------------------|----------------------------|
----------------------------|----------------------------|
------7----7--------7----7--|-----------5--------5----5--|
--7---7----7----7---7----7--|--5---5----5----5---5----5--|
--5--------5----5---5----5--|--3---3----3----3---3----3--|


  S S T S. Q    S S Q    T S.    Q    S S E  S S Q    T S.  
------------------------------|----------------------------|
------------------------------|----------------------------|
-----------7--------7----7----|--7--------7------7----7----|
--7---7----7----7---7----7----|--7----7---7--7---7----7----|
--5---5----5----5---5---------|--5----5---5--5---5---------|
------------------------------|----------------------------|


  S S T S. Q    S S Q    E     S S T S. Q    S S Q    E   
----------------------------|----------------------------|
----------------------------|----------------------------|
----------------------------|----------------------------|
------7----7--------7----7--|-----------5--------5----5--|
--7---7----7----7---7----7--|--5---5----5----5---5----5--|
--5--------5----5---5----5--|--3---3----3----3---3----3--|


  S S T S. Q    S S Q    T S.    Q    S S E  S S Q    T S.  
------------------------------|----------------------------|
------------------------------|----------------------------|
-----------7--------7----7----|--7--------7------7----7----|
--7---7----7----7---7----7----|--7----7---7--7---7----7----|
--5---5----5----5---5---------|--5----5---5--5---5---------|
------------------------------|----------------------------|


  S S T S. Q    S S Q    E     S S T S. Q    S S Q    E   
----------------------------|----------------------------|
----------------------------|----------------------------|
----------------------------|----------------------------|
------7----7--------7----7--|-----------5--------5----5--|
--7---7----7----7---7----7--|--5---5----5----5---5----5--|
--5--------5----5---5----5--|--3---3----3----3---3----3--|


  S S T S. Q    S S Q    T S.    Q    S S E  S S Q    T S.    W                 
------------------------------|----------------------------|-------------------|
------------------------------|----------------------------|-------------------|
-----------7--------7----7----|--7--------7------7----7----|-------------------|
--7---7----7----7---7----7----|--7----7---7--7---7----7----|-------------------|
--5---5----5----5---5---------|--5----5---5--5---5---------|-------------------|
------------------------------|----------------------------|-------------------|


  W                   W                   W                   W                 
-------------------|-------------------|-------------------|-------------------|
-------------------|-------------------|-------------------|-------------------|
-------------------|-------------------|-------------------|-------------------|
-------------------|-------------------|-------------------|-------------------|
-------------------|-------------------|-------------------|-------------------|
-------------------|-------------------|-------------------|-------------------|


  W                   W                   W                   W                 
-------------------|-------------------|-------------------|-------------------|
-------------------|-------------------|-------------------|-------------------|
-------------------|-------------------|-------------------|-------------------|
-------------------|-------------------|-------------------|-------------------|
-------------------|-------------------|-------------------|-------------------|
-------------------|-------------------|-------------------|-------------------|


  W                   W                   W                   W                 
-------------------|-------------------|-------------------|-------------------|
-------------------|-------------------|-------------------|-------------------|
-------------------|-------------------|-------------------|-------------------|
-------------------|-------------------|-------------------|-------------------|
-------------------|-------------------|-------------------|-------------------|
-------------------|-------------------|-------------------|-------------------|


  W                   W                   W                   W                 
-------------------|-------------------|-------------------|-------------------|
-------------------|-------------------|-------------------|-------------------|
-------------------|-------------------|-------------------|-------------------|
-------------------|-------------------|-------------------|-------------------|
-------------------|-------------------|-------------------|-------------------|
-------------------|-------------------|-------------------|-------------------|


  W                   W                   W                   W                 
-------------------|-------------------|-------------------|-------------------|
-------------------|-------------------|-------------------|-------------------|
-------------------|-------------------|-------------------|-------------------|
-------------------|-------------------|-------------------|-------------------|
-------------------|-------------------|-------------------|-------------------|
-------------------|-------------------|-------------------|-------------------|


  W                   W                   H        S S Q.      
-------------------|-------------------|----------------------|
-------------------|-------------------|----------------------|
-------------------|-------------------|----------------------|
-------------------|-------------------|----------------------|
-------------------|-------------------|-----------7---7------|
-------------------|-------------------|-----------5---5------|


  S S T S. Q    S S Q    T S.    Q    S S Q    T S. E  E   
------------------------------|---------------------------|
------------------------------|---------------------------|
------------------------------|---------------------------|
------7----7--------7---------|--7--------7---------7--7--|
--7---7----7----7---7----7----|--7----7---7----7----7--7--|
--5--------5----5---5----5----|--5----5---5----5----5--5--|


  S S T S. Q    S S Q    T S.    Q    S S Q    T S. E  E   
------------------------------|---------------------------|
------------------------------|---------------------------|
------------------------------|---------------------------|
------5----5--------5---------|--5--------5---------5--5--|
--5---5----5----5---5----5----|--5----5---5----5----5--5--|
--3--------3----3---3----3----|--3----3---3----3----3--3--|


  S S T S. Q    S S Q    T S.    Q    S S Q    T S. E  E   
------------------------------|---------------------------|
------------------------------|---------------------------|
------------------------------|---------------------------|
-----------4--------4---------|--4--------4---------4--4--|
--4---9----4----4---4----4----|--4----4---4----4----4--4--|
--2---9----2----2---2----2----|--2----2---2----2----2--2--|


  S S T S. Q    S S Q    T S.    Q    S S Q    T S. E  E     W                 
------------------------------|---------------------------|-------------------|
------------------------------|---------------------------|-------------------|
------------------------------|---------------------------|-------------------|
------3----3--------3---------|--5--------5---------5--5--|-------------------|
--3---3----3----3---3----3----|--5----5---5----5----5--5--|-------------------|
--1--------1----1---1----1----|--3----3---3----3----3--3--|-------------------|


  W                   W                   W                   W                 
-------------------|-------------------|-------------------|-------------------|
-------------------|-------------------|-------------------|-------------------|
-------------------|-------------------|-------------------|-------------------|
-------------------|-------------------|-------------------|-------------------|
-------------------|-------------------|-------------------|-------------------|
-------------------|-------------------|-------------------|-------------------|


  W                   W                   H        S S Q.      
-------------------|-------------------|----------------------|
-------------------|-------------------|----------------------|
-------------------|-------------------|----------------------|
-------------------|-------------------|----------------------|
-------------------|-------------------|-----------7---7------|
-------------------|-------------------|-----------5---5------|


  W                   W                   W                   W                 
-------------------|-------------------|-------------------|-------------------|
-------------------|-------------------|-------------------|-------------------|
-------------------|-------------------|-------------------|-------------------|
-------------------|-------------------|-------------------|-------------------|
-------------------|-------------------|-------------------|-------------------|
-------------------|-------------------|-------------------|-------------------|


  H.           S S T S.    E  E  T S. Q    Q    S S    H.           Q     
------------------------|---------------------------|--------------------|
------------------------|---------------------------|--------------------|
-------------------5----|--------7------------------|--------------------|
--5------------5---5----|--7--7--7----7----7----7---|--------------------|
--3------------3--------|--5--5-------5----5----5---|--3------------3----|
------------------------|---------------------------|--1------------1----|


                                                      NH      NH      NH  
  H.           Q       H.           Q       Q.        Q       Q       E   
--------------------|--------------------|-------------------------------|
--------------------|--------------------|-------------------------<>12--|
--------------------|--------------------|-----------------<>12----------|
--------------------|--------------------|---------<>12------------------|
--2------------2----|--7------------7----|--5----------------------------|
--0------------0----|--5------------5----|--3----------------------------|


  Q.     T S. S S T S. Q       Q    T S. Q.     S S T S.    Q.     Q.     Q     
----------------------------|----------------------------|---------------------|
----------------------------|----------------------------|---------------------|
----------------------------|----------------------------|--7------5------4----|
---------3------------------|-------2--------------------|--7------5------4----|
--3------3----3---3----3----|--2----2----2------2---2----|--5------3------2----|
--1-----------1---1----1----|--0---------0------0---0----|---------------------|


  E  Q.     Q    Q       H.           Q       H.           Q     
----------------------|--------------------|--------------------|
----------------------|--------------------|--------------------|
--L--2------4----5----|--------------------|--------------------|
-----2------4----5----|--------------------|--------------------|
-----0------2----3----|--3------------3----|--2------------2----|
----------------------|--1------------1----|--0------------0----|


                                 NH      NH      NH  
  H.           Q       Q.        Q       Q       E   
--------------------|-------------------------------|
--------------------|-------------------------<>12--|
--------------------|-----------------<>12----------|
--------------------|---------<>12------------------|
--7------------7----|--5----------------------------|
--5------------5----|--3----------------------------|


  Q.     T S. S S T S. Q       Q    T S. Q.     S S T S.  
----------------------------|----------------------------|
----------------------------|----------------------------|
----------------------------|----------------------------|
---------3------------------|-------2--------------------|
--3------3----3---3----3----|--2----2----2------2---2----|
--1-----------1---1----1----|--0---------0------0---0----|


  Q    S S Q    Q    T S.    Q    S S Q    S S E.  S  
--------------------------|--------------------------|
--------------------------|--------------------------|
--------------------------|--------------------------|
--------------------------|--------------------------|
--3----3---3----3----3----|--5----L---5----L---5-----|
--1----1---1----1----1----|--3----L---3----L---3-----|


  S S T S. Q    S S Q    E     S S T S. Q    S S Q    E   
----------------------------|----------------------------|
----------------------------|----------------------------|
----------------------------|----------------------------|
------7---------------------|----------------------------|
--7---7----7----7---7----7--|--5---5----5----5---5----5--|
--5--------5----5---5----5--|--3---3----3----3---3----3--|


  S S T S. Q    S S Q    T S.    Q    T S. E  T S. Q    T S.  
------------------------------|------------------------------|
------------------------------|------------------------------|
-------------------------7----|-------------------------7----|
--7---7----7----7---7----7----|--7----7----7--7----7----7----|
--5---5----5----5---5---------|--5----5----5--5----5---------|
------------------------------|------------------------------|


  S S T S. Q    S S Q    E     S S T S. Q    S S Q    E   
----------------------------|----------------------------|
----------------------------|----------------------------|
----------------------------|----------------------------|
------7---------------------|----------------------------|
--7---7----7----7---7----7--|--5---5----5----5---5----5--|
--5--------5----5---5----5--|--3---3----3----3---3----3--|


  S S T S. Q    S S Q    T S.    E  E  E  E  E  E  E  E   
------------------------------|--------------------------|
------------------------------|--------------------------|
-------------------------7----|--------------------------|
--7---7----7----7---7----7----|--------------------------|
--5---5----5----5---5---------|--------------0--2--3--5--|
------------------------------|--1--0--1--3--------------|


  S S T S. Q    S S Q    E     S S T S. Q    S S Q    E   
----------------------------|----------------------------|
----------------------------|----------------------------|
----------------------------|----------------------------|
------7---------------------|----------------------------|
--7---7----7----7---7----7--|--5---5----5----5---5----5--|
--5--------5----5---5----5--|--3---3----3----3---3----3--|


  S S T S. Q    S S Q    T S.    Q    T S. E  T S. Q    T S.  
------------------------------|------------------------------|
------------------------------|------------------------------|
-------------------------7----|-------------------------7----|
--7---7----7----7---7----7----|--7----7----7--7----7----7----|
--5---5----5----5---5---------|--5----5----5--5----5---------|
------------------------------|------------------------------|


  S S T S. Q    S S Q    E     S S T S. Q    S S Q    E   
----------------------------|----------------------------|
----------------------------|----------------------------|
----------------------------|----------------------------|
------7---------------------|----------------------------|
--7---7----7----7---7----7--|--5---5----5----5---5----5--|
--5--------5----5---5----5--|--3---3----3----3---3----3--|


  S S T S. Q    S S Q    T S.    E  E  E  H        E   
------------------------------|-----------------------|
------------------------------|-----------------------|
-------------------------7----|-----------------------|
--7---7----7----7---7----7----|--------2--3--------L--|
--5---5----5----5---5---------|--0--3-----------------|
------------------------------|-----------------------|


  S S T S. Q    S S Q    E     S S T S. Q    S S Q    E   
----------------------------|----------------------------|
----------------------------|----------------------------|
----------------------------|----------------------------|
------7----7--------7----7--|-----------5--------5----5--|
--7---7----7----7---7----7--|--5---5----5----5---5----5--|
--5--------5----5---5----5--|--3---3----3----3---3----3--|


  S S T S. Q    S S Q    T S.    Q    S S E  S S Q    T S.  
------------------------------|----------------------------|
------------------------------|----------------------------|
-----------7--------7----7----|--7--------7------7----7----|
--7---7----7----7---7----7----|--7----7---7--7---7----7----|
--5---5----5----5---5---------|--5----5---5--5---5---------|
------------------------------|----------------------------|


  S S T S. Q    S S Q    E     S S T S. Q    S S Q    E   
----------------------------|----------------------------|
----------------------------|----------------------------|
----------------------------|----------------------------|
------7----7--------7----7--|-----------5--------5----5--|
--7---7----7----7---7----7--|--5---5----5----5---5----5--|
--5--------5----5---5----5--|--3---3----3----3---3----3--|


  S S T S. Q    S S Q    T S.    Q    S S E  S S Q    T S T   
------------------------------|-----------------------------||
------------------------------|-----------------------------||
-----------7--------7----7----|--7--------7------7----7-----||
--7---7----7----7---7----7----|--7----7---7--7---7----7-----||
--5---5----5----5---5---------|--5----5---5--5---5----------||
------------------------------|-----------------------------||




Piste 2
     E  E  E  E  E  E  E  E     E  E  E  E  E  E  E  E   
E||-----------0-----------0--|-----------0--------------|
B||-----1-----------1--------|-----1-----------1-----1--|
G||--------2-----------2-----|--------2-----------2-----|
D||--3-----------3-----------|--3-----------3-----------|
A||--------------------------|--------------------------|
E||--------------------------|--------------------------|


  E  E  E  E  E  E  E  E     E  E  E  E  E  E  E  E   
-----------0-----------0--|-----------0--------------|
-----1-----------1--------|-----1-----------1-----1--|
--------2-----------2-----|--------2-----------2-----|
--3-----------3-----------|--3-----------3-----------|
--------------------------|--------------------------|
--------------------------|--------------------------|


  E  E  E  E  E  E  E  E     E  E  E  E  E  E  E  E   
-----------0-----------0--|-----------0--------------|
-----3-----------3--------|-----3-----------3-----3--|
--------0-----------0-----|--------0-----------0-----|
--2-----------2-----------|--2-----------2-----------|
--------------------------|--------------------------|
--------------------------|--------------------------|


  E  E  E  E  E  E  E  E     E  E  E  E  E  E  E  E     Q.     Q.     Q     
-----------0-----------0--|-----------0--------------|---------------------|
-----3-----------3--------|-----3-----------3-----3--|----------------1----|
--------0-----------0-----|--------0-----------0-----|---------2-----------|
--2-----------2-----------|--2-----------2-----------|--3------------------|
--------------------------|--------------------------|---------------------|
--------------------------|--------------------------|---------------------|


  ^                                                                             
  W                   W                   W                   W                 
--0----------------|-------------------|-------------------|-------------------|
--1----------------|-------------------|-------------------|-------------------|
--2----------------|-------------------|-------------------|-------------------|
--3----------------|-------------------|-------------------|-------------------|
-------------------|-------------------|-------------------|-------------------|
-------------------|-------------------|-------------------|-------------------|


  W                   W                   W                   W                 
-------------------|-------------------|-------------------|-------------------|
-------------------|-------------------|-------------------|-------------------|
-------------------|-------------------|-------------------|-------------------|
-------------------|-------------------|-------------------|-------------------|
-------------------|-------------------|-------------------|-------------------|
-------------------|-------------------|-------------------|-------------------|


  W                   W                   W                   W                 
-------------------|-------------------|-------------------|-------------------|
-------------------|-------------------|-------------------|-------------------|
-------------------|-------------------|-------------------|-------------------|
-------------------|-------------------|-------------------|-------------------|
-------------------|-------------------|-------------------|-------------------|
-------------------|-------------------|-------------------|-------------------|


  W                   W                   W                   W                 
-------------------|-------------------|-------------------|-------------------|
-------------------|-------------------|-------------------|-------------------|
-------------------|-------------------|-------------------|-------------------|
-------------------|-------------------|-------------------|-------------------|
-------------------|-------------------|-------------------|-------------------|
-------------------|-------------------|-------------------|-------------------|


                      |-3-|                                      
  W                   S S S H.           E     W                 
-------------------|--------5------------L--|--L----------------|
-------------------|------5-----------------|-------------------|
-------------------|----5-------------------|-------------------|
-------------------|--7---------------------|-------------------|
-------------------|------------------------|-------------------|
-------------------|------------------------|-------------------|


  |-3-|                                        |-3-|                  
  S S S H.           E     W                   S S S H.           E   
--------2------------L--|--L----------------|--------5------------L--|
------3-----------------|-------------------|------5-----------------|
----2-------------------|-------------------|----5-------------------|
--4---------------------|-------------------|--7---------------------|
------------------------|-------------------|------------------------|
------------------------|-------------------|------------------------|


                      |-3-|                                      
  W                   S S S H.           E     W                 
--L----------------|--------2------------L--|--L----------------|
-------------------|------3-----------------|-------------------|
-------------------|----2-------------------|-------------------|
-------------------|--4---------------------|-------------------|
-------------------|------------------------|-------------------|
-------------------|------------------------|-------------------|


  |-3-|                                        |-3-|                  
  S S S H.           E     W                   S S S H.           E   
--------5------------L--|--L----------------|--------2------------L--|
------5-----------------|-------------------|------3-----------------|
----5-------------------|-------------------|----2-------------------|
--7---------------------|-------------------|--4---------------------|
------------------------|-------------------|------------------------|
------------------------|-------------------|------------------------|


                      |-3-|                                      
  W                   S S S H.           E     W                 
--L----------------|--------5------------L--|--L----------------|
-------------------|------5-----------------|-------------------|
-------------------|----5-------------------|-------------------|
-------------------|--7---------------------|-------------------|
-------------------|------------------------|-------------------|
-------------------|------------------------|-------------------|


  |-3-|                                        |-3-|                  
  S S S H.           E     W                   S S S H.           E   
--------2------------L--|--L----------------|--------5------------L--|
------3-----------------|-------------------|------5-----------------|
----2-------------------|-------------------|----5-------------------|
--4---------------------|-------------------|--7---------------------|
------------------------|-------------------|------------------------|
------------------------|-------------------|------------------------|


                      |-3-|                                      
  W                   S S S H.           E     W                 
--L----------------|--------2------------L--|--L----------------|
-------------------|------3-----------------|-------------------|
-------------------|----2-------------------|-------------------|
-------------------|--4---------------------|-------------------|
-------------------|------------------------|-------------------|
-------------------|------------------------|-------------------|


  |-3-|                                        |-3-|                  
  S S S H.           E     W                   S S S H.           E   
--------5------------L--|--L----------------|--------2------------L--|
------5-----------------|-------------------|------3-----------------|
----5-------------------|-------------------|----2-------------------|
--7---------------------|-------------------|--4---------------------|
------------------------|-------------------|------------------------|
------------------------|-------------------|------------------------|


  |-3-|                                                          
  S S S H.           E     W                   W                 
--------1------------L--|-------------------|-------------------|
------3-----------------|-------------------|-------------------|
----5-------------------|-------------------|-------------------|
--7---------------------|-------------------|-------------------|
------------------------|-------------------|-------------------|
------------------------|-------------------|-------------------|


  W                   W                   W                   W                 
-------------------|-------------------|-------------------|-------------------|
-------------------|-------------------|-------------------|-------------------|
-------------------|-------------------|-------------------|-------------------|
-------------------|-------------------|-------------------|-------------------|
-------------------|-------------------|-------------------|-------------------|
-------------------|-------------------|-------------------|-------------------|


                                          |-3-|                  
  W                   W                   S S S H.           E   
-------------------|-------------------|--------5------------L--|
-------------------|-------------------|------5-----------------|
-------------------|-------------------|----5-------------------|
-------------------|-------------------|--7---------------------|
-------------------|-------------------|------------------------|
-------------------|-------------------|------------------------|


                      |-3-|                                      
  W                   S S S H.           E     W                 
--L----------------|--------2------------L--|--L----------------|
-------------------|------3-----------------|-------------------|
-------------------|----2-------------------|-------------------|
-------------------|--4---------------------|-------------------|
-------------------|------------------------|-------------------|
-------------------|------------------------|-------------------|


  |-3-|                                        |-3-|                  
  S S S H.           E     W                   S S S H.           E   
--------5------------L--|--L----------------|--------2------------L--|
------5-----------------|-------------------|------3-----------------|
----5-------------------|-------------------|----2-------------------|
--7---------------------|-------------------|--4---------------------|
------------------------|-------------------|------------------------|
------------------------|-------------------|------------------------|


  W                   T T T H.           E  T    T T T H.           E  T  
--L----------------|--------5------------L--L-|--------3------------L--L-|
-------------------|------5-------------------|------5-------------------|
-------------------|----7---------------------|----5---------------------|
-------------------|--7-----------------------|--5-----------------------|
-------------------|--------------------------|--------------------------|
-------------------|--------------------------|--------------------------|


  T T T H.           E  T    T T T H.           E  T    W                 
--------2------------L--L-|--------0------------L--L-|-------------------|
------3-------------------|------1-------------------|-------------------|
----2---------------------|----2---------------------|-------------------|
--4-----------------------|--3-----------------------|-------------------|
--------------------------|--------------------------|-------------------|
--------------------------|--------------------------|-------------------|


  W                   S S T S. E  E  S S E  T S. S S  
-------------------|---------------------------------|
-------------------|------------------------1--------|
-------------------|------5----5---------2-------2---|
-------------------|--3-----------5--3---------------|
-------------------|---------------------------------|
-------------------|---------------------------------|


  E  S. T S S T S. T S. S S E  E     S S T S. E  E  T S. E  S S T S.  
----------------------------------|----------------------------------|
----------------------------------|----------------------------------|
--------------4-------------7-----|-----------5----------------------|
-----5-------------------------5--|------7-------5-------5------7----|
--7-------7--------7----7---------|--7--------------7-------7--------|
----------------------------------|----------------------------------|


                NH      NH                                               
  E  E  T S.    Q       Q    E     W                   W                 
--------------------------------|-------------------|-------------------|
---------------------<>12----0--|-------------------|-------------------|
--------5----<>12---------------|-------------------|-------------------|
-----5--------------------------|-------------------|-------------------|
--5-----------------------------|-------------------|-------------------|
--------------------------------|-------------------|-------------------|


  W                   W                   W                   W                 
-------------------|-------------------|-------------------|-------------------|
-------------------|-------------------|-------------------|-------------------|
-------------------|-------------------|-------------------|-------------------|
-------------------|-------------------|-------------------|-------------------|
-------------------|-------------------|-------------------|-------------------|
-------------------|-------------------|-------------------|-------------------|


  W                   W                   W                   W                 
-------------------|-------------------|-------------------|-------------------|
-------------------|-------------------|-------------------|-------------------|
-------------------|-------------------|-------------------|-------------------|
-------------------|-------------------|-------------------|-------------------|
-------------------|-------------------|-------------------|-------------------|
-------------------|-------------------|-------------------|-------------------|


  W                   W                   W                   W                 
-------------------|-------------------|-------------------|-------------------|
-------------------|-------------------|-------------------|-------------------|
-------------------|-------------------|-------------------|-------------------|
-------------------|-------------------|-------------------|-------------------|
-------------------|-------------------|-------------------|-------------------|
-------------------|-------------------|-------------------|-------------------|


  W                   W                   W                   W                 
-------------------|-------------------|-------------------|-------------------|
-------------------|-------------------|-------------------|-------------------|
-------------------|-------------------|-------------------|-------------------|
-------------------|-------------------|-------------------|-------------------|
-------------------|-------------------|-------------------|-------------------|
-------------------|-------------------|-------------------|-------------------|


  W                   W                   W                   W                 
-------------------|-------------------|-------------------|-------------------|
-------------------|-------------------|-------------------|-------------------|
-------------------|-------------------|-------------------|-------------------|
-------------------|-------------------|-------------------|-------------------|
-------------------|-------------------|-------------------|-------------------|
-------------------|-------------------|-------------------|-------------------|


  W                   W                   W                   W                 
-------------------|-------------------|-------------------|-------------------|
-------------------|-------------------|-------------------|-------------------|
-------------------|-------------------|-------------------|-------------------|
-------------------|-------------------|-------------------|-------------------|
-------------------|-------------------|-------------------|-------------------|
-------------------|-------------------|-------------------|-------------------|


  W                   W                   W                   W                 
-------------------|-------------------|-------------------|-------------------|
-------------------|-------------------|-------------------|-------------------|
-------------------|-------------------|-------------------|-------------------|
-------------------|-------------------|-------------------|-------------------|
-------------------|-------------------|-------------------|-------------------|
-------------------|-------------------|-------------------|-------------------|


  W                   W                   W                   W                 
-------------------|-------------------|-------------------|-------------------|
-------------------|-------------------|-------------------|-------------------|
-------------------|-------------------|-------------------|-------------------|
-------------------|-------------------|-------------------|-------------------|
-------------------|-------------------|-------------------|-------------------|
-------------------|-------------------|-------------------|-------------------|


  W                   W                  
-------------------|-------------------||
-------------------|-------------------||
-------------------|-------------------||
-------------------|-------------------||
-------------------|-------------------||
-------------------|-------------------||




Piste 3
E||-------|-------|-------|-------|-------|-------|-------|-------|-------|
B||-------|-------|-------|-------|-------|-------|-------|-------|-------|
G||-------|-------|-------|-------|-------|-------|-------|-------|-------|
D||-------|-------|-------|-------|-------|-------|-------|-------|-------|
A||-------|-------|-------|-------|-------|-------|-------|-------|-------|
E||-------|-------|-------|-------|-------|-------|-------|-------|-------|


  W                   W                   W                   W                 
-------------------|-------------------|-------------------|-------------------|
-------------------|-------------------|-------------------|-------------------|
-------------------|-------------------|-------------------|-------------------|
-------------------|-------------------|-------------------|-------------------|
-------------------|-------------------|-------------------|-------------------|
-------------------|-------------------|-------------------|-------------------|


  W                   W                   W                   W                 
-------------------|-------------------|-------------------|-------------------|
-------------------|-------------------|-------------------|-------------------|
-------------------|-------------------|-------------------|-------------------|
-------------------|-------------------|-------------------|-------------------|
-------------------|-------------------|-------------------|-------------------|
-------------------|-------------------|-------------------|-------------------|


  W                   W                   W                   W                 
-------------------|-------------------|-------------------|-------------------|
-------------------|-------------------|-------------------|-------------------|
-------------------|-------------------|-------------------|-------------------|
-------------------|-------------------|-------------------|-------------------|
-------------------|-------------------|-------------------|-------------------|
-------------------|-------------------|-------------------|-------------------|


  W                   W                   W                   W                 
-------------------|-------------------|-------------------|-------------------|
-------------------|-------------------|-------------------|-------------------|
-------------------|-------------------|-------------------|-------------------|
-------------------|-------------------|-------------------|-------------------|
-------------------|-------------------|-------------------|-------------------|
-------------------|-------------------|-------------------|-------------------|


  W                   W                   W                   W                 
-------------------|-------------------|-------------------|-------------------|
-------------------|-------------------|-------------------|-------------------|
-------------------|-------------------|-------------------|-------------------|
-------------------|-------------------|-------------------|-------------------|
-------------------|-------------------|-------------------|-------------------|
-------------------|-------------------|-------------------|-------------------|


  W                   W                   W                   W                 
-------------------|-------------------|-------------------|-------------------|
-------------------|-------------------|-------------------|-------------------|
-------------------|-------------------|-------------------|-------------------|
-------------------|-------------------|-------------------|-------------------|
-------------------|-------------------|-------------------|-------------------|
-------------------|-------------------|-------------------|-------------------|


  W                   Q.       H         E      H        E  E  E  E   
-------------------|------------------------|------------8--7--------|
-------------------|---------/10---------L--|---L--------------8--7--|
-------------------|------------------------|------------------------|
-------------------|--7---------------------|------------------------|
-------------------|------------------------|------------------------|
-------------------|------------------------|------------------------|


  Q.     Q.     Q       W                   Q.       H         E   
---------------------|-------------------|------------------------|
--L------------------|-------------------|---------/10---------L--|
---------7-----------|-------------------|------------------------|
----------------7----|--L----------------|--7---------------------|
---------------------|-------------------|------------------------|
---------------------|-------------------|------------------------|


   H        E  E  E  E     Q.     Q.     Q       W                 
------------8--7--------|---------------------|-------------------|
---L--------------8--7--|--L------------------|-------------------|
------------------------|---------7-----------|-------------------|
------------------------|----------------7----|--L----------------|
------------------------|---------------------|-------------------|
------------------------|---------------------|-------------------|


  Q.       H         E      H        E  E  E  E     Q.     Q.     Q     
------------------------|------------8--7--------|---------------------|
---------/10---------L--|---L--------------8--7--|--L------------------|
------------------------|------------------------|---------7-----------|
--7---------------------|------------------------|----------------7----|
------------------------|------------------------|---------------------|
------------------------|------------------------|---------------------|


  W                   Q.       H         E      H        E  E  E  E   
-------------------|------------------------|------------8--7--------|
-------------------|---------/10---------L--|---L--------------8--7--|
-------------------|------------------------|------------------------|
--L----------------|--7---------------------|------------------------|
-------------------|------------------------|------------------------|
-------------------|------------------------|------------------------|


  Q.     E  E  E  E  E     Q    E  E  S S E  E  E     Q    Q.     Q.      
------------------------|--------------------------|---------------------|
--L------7--7--5--------|-------------5------------|---------------------|
------------------7--5--|--L-------5----7-5--7--5--|--L------------------|
------------------------|-------7------------------|-------7-------------|
------------------------|--------------------------|---------------------|
------------------------|--------------------------|---------------------|


                                            NH       NH        NH    
  W                   W                     Q.       Q.        Q     
-------------------|-------------------|--------------------<>12----|
-------------------|-------------------|----------------------------|
-------------------|-------------------|----------------------------|
-------------------|-------------------|-----------<>7--------------|
-------------------|-------------------|--<>7-----------------------|
-------------------|-------------------|----------------------------|


     NH                     NH                                    
     W                      W                   W                 
---<>L----------------|---<>L----------------|-------------------|
----------------------|----------------------|-------------------|
----------------------|----------------------|-------------------|
----------------------|----------------------|-------------------|
----------------------|----------------------|-------------------|
----------------------|----------------------|-------------------|


  W                   Q.       H         E      H        E  E  E  E   
-------------------|------------------------|------------8--7--------|
-------------------|---------\10---------L--|---L--------------8--7--|
-------------------|------------------------|------------------------|
-------------------|--7---------------------|------------------------|
-------------------|------------------------|------------------------|
-------------------|------------------------|------------------------|


  Q.     Q.     Q       W                   Q.       H         E   
---------------------|-------------------|------------------------|
--L------------------|-------------------|---------/10---------L--|
---------7-----------|-------------------|------------------------|
----------------7----|--L----------------|--7---------------------|
---------------------|-------------------|------------------------|
---------------------|-------------------|------------------------|


   H        E  E  E  E     Q.     Q.     Q       W                 
------------8--7--------|---------------------|-------------------|
---L--------------8--7--|--L------------------|-------------------|
------------------------|---------7-----------|-------------------|
------------------------|----------------7----|--L----------------|
------------------------|---------------------|-------------------|
------------------------|---------------------|-------------------|


  Q.       H         E      H        E  E  E  E     Q.     Q.     Q     
------------------------|------------8--7--------|---------------------|
---------\10---------L--|---L--------------8--7--|--L------------------|
------------------------|------------------------|---------7-----------|
--7---------------------|------------------------|----------------7----|
------------------------|------------------------|---------------------|
------------------------|------------------------|---------------------|


  Q.     Q    Q.        E  E  E  H        E     E  E  E  Q    Q    E   
---------------------|-----------------------|------------------------|
---------------------|-----------8--------L--|-----------7------------|
---------7----5------|--------5--------------|----------------7-------|
--L------------------|-----5-----------------|--------7------------7--|
---------------------|--7--------------------|--5--9------------------|
---------------------|-----------------------|------------------------|


   Q.     H        E     Q.     Q.      Q        Q.     Q.      T  E.   T  
--10------8--------L--|--7------8------10----|--10------8------10-12----L-|
----------------------|----------------------|----------------------------|
----------------------|----------------------|----------------------------|
----------------------|----------------------|----------------------------|
----------------------|----------------------|----------------------------|
----------------------|----------------------|----------------------------|


   Q.     Q.     Q       Q.     H        E     Q.     Q.     Q     
--10------8------7----|--8------5--------L--|--7-------------7----|
----------------------|---------------------|---------8-----------|
----------------------|---------------------|---------------------|
----------------------|---------------------|---------------------|
----------------------|---------------------|---------------------|
----------------------|---------------------|---------------------|


  Q.     H        E     H.           E  T T T T     Q.     H        E   
--5------------------|--------------------5-7-8-|--10------8--------L--|
---------7--------L--|--L------------L--8-------|----------------------|
---------------------|--------------------------|----------------------|
---------------------|--------------------------|----------------------|
---------------------|--------------------------|----------------------|
---------------------|--------------------------|----------------------|


  Q.     Q.      Q        Q.     Q.      T  E.   T     Q.     Q.     Q     
--7------8------10----|--10------8------10-12----L-|--10------8------7----|
----------------------|----------------------------|----------------------|
----------------------|----------------------------|----------------------|
----------------------|----------------------------|----------------------|
----------------------|----------------------------|----------------------|
----------------------|----------------------------|----------------------|


  Q.     H        E     Q.     Q.     Q       Q.      Q.     Q     
--8------5--------L--|--7------------------|----------------------|
---------------------|---------8-----------|----------------------|
---------------------|----------------9----|---------10------9----|
---------------------|---------------------|----------------------|
---------------------|---------------------|--8-------------------|
---------------------|---------------------|----------------------|


                                                   |-3-|                      
  Q.     Q     Q    E     Q.     H        E     E  S S S S T T Q     Q    E   
-----------------------|---------------------|-------------------------------|
---------8-------------|---------------------|-----------------8-------------|
--------------10----9--|--7------9--------L--|--9--7-5-4-2-0--------10----9--|
--9--------------------|---------------------|-------------------------------|
-----------------------|---------------------|-------------------------------|
-----------------------|---------------------|-------------------------------|


                                  |--3--|                               
  Q.     Q.     Q       E  Q.     E  E  E  Q       Q.     Q.      Q     
---------------------|--------------------------|----------------------|
----------------5----|--L-----------------------|----------------10----|
--7------5-----------|-----7------5--7--5--4----|--5-------------------|
---------------------|--------------------------|---------7------------|
---------------------|--------------------------|----------------------|
---------------------|--------------------------|----------------------|


   W                    W                    S H.           E.   
--------------------|--------------------|----------------------|
---L----------------|---L----------------|---L------------------|
--------------------|--------------------|----------------------|
--------------------|--------------------|----------------------|
--------------------|--------------------|----------------------|
--------------------|--------------------|----------------------|


                           |-3-|                                            
  Q.     H        E     E  S S S S T T Q     Q    E     Q.     Q.     Q     
---------------------|-------------------------------|---------------------|
---------5--------L--|--L--------------8-------------|----------------5----|
--7------------------|-----7-5-4-2-0--------10----9--|--7------5-----------|
---------------------|-------------------------------|---------------------|
---------------------|-------------------------------|---------------------|
---------------------|-------------------------------|---------------------|


            |--3--|                                                    
  E  Q.     E  E  E  Q       Q.     Q.      Q        W                 
--------------------------|----------------------|--------------------|
--L-----------------------|----------------10----|---L----------------|
-----7------5--7--5--4----|--5-------------------|--------------------|
--------------------------|---------7------------|--------------------|
--------------------------|----------------------|--------------------|
--------------------------|----------------------|--------------------|


   W                    S H        Q    E  S    W                 
--------------------|------------------------|-------------------|
---L----------------|---L--------------------|-------------------|
--------------------|------------------------|-------------------|
--------------------|------------------------|-------------------|
--------------------|------------------------|-------------------|
--------------------|------------------------|-------------------|


  W                   W                   W                   W                 
-------------------|-------------------|-------------------|-------------------|
-------------------|-------------------|-------------------|-------------------|
-------------------|-------------------|-------------------|-------------------|
-------------------|-------------------|-------------------|-------------------|
-------------------|-------------------|-------------------|-------------------|
-------------------|-------------------|-------------------|-------------------|


  W                   W                   W                  
-------------------|-------------------|-------------------||
-------------------|-------------------|-------------------||
-------------------|-------------------|-------------------||
-------------------|-------------------|-------------------||
-------------------|-------------------|-------------------||
-------------------|-------------------|-------------------||




Bass
G||-------|-------|-------|-------|-------|-------|-------|-------|-------|
D||-------|-------|-------|-------|-------|-------|-------|-------|-------|
A||-------|-------|-------|-------|-------|-------|-------|-------|-------|
E||-------|-------|-------|-------|-------|-------|-------|-------|-------|


  W                   E  E  E  E  E  E  E  E     E  E  E  E  E  E  E  E   
-------------------|--------------------------|--------------------------|
-------------------|--------------------------|--------------------------|
-------------------|--------------------------|--------------------------|
-------------------|--5--5--5--5--5--5--5--5--|--3--3--3--3--3--3--3--3--|


  E  E  E  E  E  E  E  E     E  E  E  Q    E  E  E     E  E  E  E  E  E  E  E   
--------------------------|-------------------------|--------------------------|
--------------------------|-------------------------|--------------------------|
--------------------------|--3--5--5--5----5--5--5--|--------------------------|
--2--2--2--2--2--2--2--2--|-------------------------|--5--5--5--5--5--5--5--5--|


  E  E  E  E  E  E  E  E     E  E  E  E  E  E  E  E     E  E  E  Q    E  E  E   
--------------------------|--------------------------|-------------------------|
--------------------------|--------------------------|-------------------------|
--------------------------|--------------------------|--3--5--5--3-------------|
--3--3--3--3--3--3--3--3--|--2--2--2--2--2--2--2--2--|----------------2--3--5--|


  E  E  E  E  E  E  E  E     E  E  E  E  E  E  E  E   
--------------------------|--------------------------|
--------------------------|--------------------------|
--------------------------|--------------------------|
--5--5--5--5--5--5--5--5--|--3--3--3--3--3--3--3--3--|


  E  E  E  E  E  E  E  E     E  E  E  Q    E  E  E     E  E  E  E  E  E  E  E   
--------------------------|-------------------------|--------------------------|
--------------------------|-------------------------|--------------------------|
--------------------------|--3--5--5--5----5--5--5--|--------------------------|
--2--2--2--2--2--2--2--2--|-------------------------|--5--5--5--5--5--5--5--5--|


  E  E  E  E  E  E  E  E     E  E  E  E  E  E  E  E     E  E  E  Q    E  E  E   
--------------------------|--------------------------|-------------------------|
--------------------------|--------------------------|-------------------------|
--------------------------|--------------------------|--3--5--5--3-------------|
--3--3--3--3--3--3--3--3--|--2--2--2--2--2--2--2--2--|----------------2--3--5--|


  Q.     Q.     Q       E  Q.     Q    Q       Q.     Q.     Q     
---------------------|----------------------|---------------------|
---------7------5----|--L-------------------|---------4-----------|
---------------------|-----5------7----3----|----------------5----|
--5------------------|----------------------|--2------------------|


  E  Q.     Q    Q       Q.     Q.     Q       E  Q.     Q    Q     
----------------------|---------------------|----------------------|
----------------------|---------7------5----|--L-------------------|
--L--3------5----3----|---------------------|-----5------7----3----|
----------------------|--5------------------|----------------------|


  Q.     Q.     Q       E  Q.     Q    Q       Q.     Q.     Q     
---------------------|----------------------|---------------------|
---------4-----------|----------------------|---------7------5----|
----------------5----|--L--3------5----3----|---------------------|
--2------------------|----------------------|--5------------------|


  E  Q.     Q    Q       Q.     Q.     Q       E  Q.     Q    Q     
----------------------|---------------------|----------------------|
--L-------------------|---------4-----------|----------------------|
-----5------7----3----|----------------5----|--L--3------5----3----|
----------------------|--2------------------|----------------------|


  Q.     Q.     Q       E  Q.     Q    Q       Q.     Q.     Q     
---------------------|----------------------|---------------------|
---------7------5----|--L-------------------|---------4-----------|
---------------------|-----5------7----3----|----------------5----|
--5------------------|----------------------|--2------------------|


  E  Q.     Q    Q       Q.     Q.     Q       E  Q.     Q    Q     
----------------------|---------------------|----------------------|
----------------------|---------7------5----|--L-------------------|
--L--3------5----3----|---------------------|-----5------7----3----|
----------------------|--5------------------|----------------------|


  Q.     Q.     Q       E  Q.     Q    Q       Q.     Q.     Q     
---------------------|----------------------|---------------------|
---------4-----------|----------------------|---------7------5----|
----------------5----|--L--3------5----3----|---------------------|
--2------------------|----------------------|--5------------------|


  E  Q.     Q    Q       Q.     Q.     Q       E  Q.     Q    Q     
----------------------|---------------------|----------------------|
--L-------------------|---------4-----------|-----3----------------|
-----5------7----3----|----------------5----|--L-------------------|
----------------------|--2------------------|------------2----3----|


  E  E  E  E  E  E  E  E     E  E  E  E  E  E  E  E   
--------------------------|--------------------------|
--------------------------|--------------------------|
--------------------------|--------------------------|
--5--5--5--5--5--5--5--5--|--5--5--5--5--5--5--5--5--|


  E  E  E  E  E  E  E  E     E  E  E  E  E  E  E  E   
--------------------------|--------------------------|
--------------------------|--------------------------|
--------------------------|--------------------------|
--3--3--3--3--3--3--3--3--|--3--3--3--3--3--3--3--3--|


  E  E  E  E  E  E  E  E     E  E  E  E  E  E  E  E   
--------------------------|--------------------------|
--------------------------|--------------------------|
--------------------------|--------------------------|
--2--2--2--2--2--2--2--2--|--2--2--2--2--2--2--2--2--|


  E  E  E  E  E  E  E  E     E  E  E  Q    Q    E     E  E  E  E  E  E  E  E   
--------------------------|------------------------|--------------------------|
--------------------------|------------------------|--------------------------|
--------------------------|-----------5------------|--------------------------|
--1--1--1--1--1--1--1--1--|--3--3--3-------8----7--|--5--5--5--5--5--5--5--5--|


  E  E  E  E  E  E  E  E     E  E  E  E  E  E  E  E   
--------------------------|--------------------------|
--------------------------|--------------------------|
--------------------------|--------------------------|
--5--5--5--5--5--5--5--5--|--5--5--5--5--5--5--5--5--|


  E  E  E  E  E  E  E  E     E  E  E  E  E  E  E  E   
--------------------------|--------------------------|
--------------------------|--------------------------|
--------------------------|--------------------------|
--5--5--5--5--5--5--5--5--|--5--5--5--5--5--5--5--5--|


  E  E  E  E  E  E  E  E     E  E  E  E  E  E  E  E   
--------------------------|--------------------------|
--------------------------|--------------------------|
--------------------------|--------------------------|
--5--5--5--5--5--5--5--5--|--5--5--5--5--5--5--5--5--|


  E  E  E  E  E  E  E  E     E  E  E  E  E  E  E  E   
--------------------------|--------------------------|
--------------------------|--------------------------|
--------------------------|--------------------------|
--5--5--5--5--5--5--5--5--|--5--5--5--5--5--5--5--5--|


  E  E  E  E  E  E  E  E     E  E  E  E  E  E  E  E     E  E  E  Q    Q    E   
--------------------------|--------------------------|------------------------|
--------------------------|--------------------------|------------------------|
--------------------------|--------------------------|-----------7----5----2--|
--3--3--3--3--3--3--3--3--|--2--2--2--2--2--2--2--2--|--1--1--1---------------|


  E  E  E  E  E  E  E  E     E  E  E  E  E  E  E  E     W                 
--------------------------|--------------------------|-------------------|
--------------------------|--------------------------|-------------------|
--3--3--3--3--3--3--3--3--|--3--5--5--5--5--5--5--5--|-------------------|
--------------------------|--------------------------|--1----------------|


  W                   W                   Q.     Q    Q    E   
-------------------|-------------------|----------------------|
-------------------|-------------------|----------------------|
-------------------|-------------------|--------------2----3--|
--0----------------|--5----------------|--3------3------------|


  Q.     Q.     Q       Q.     Q.     Q       Q.     Q.     Q     
---------------------|---------------------|---------------------|
---------------------|---------------------|---------------------|
---------3-----------|---------2-----------|--5------3------2----|
--1-------------1----|--0-------------0----|---------------------|


  E  Q.     Q    Q       W                   W                 
----------------------|-------------------|-------------------|
----------------------|-------------------|-------------------|
--L--0------2----3----|-------------------|-------------------|
----------------------|--1----------------|--0----------------|


  W                   Q.     Q    Q    E     Q.     Q.     Q     
-------------------|----------------------|---------------------|
-------------------|----------------------|---------------------|
-------------------|--------------2----3--|---------3-----------|
--5----------------|--3------3------------|--1-------------1----|


  Q.     Q.     Q       Q.     Q.     Q       Q.     Q.     Q     
---------------------|---------------------|---------------------|
---------------------|---------3-----------|---------5-----------|
---------2-----------|----------------3----|----------------5----|
--0-------------0----|--1------------------|--3------------------|


  E  E  E  E  E  E  E  E     E  E  E  E  E  E  E  E   
--------------------------|--------------------------|
--------------------------|--------------------------|
--------------------------|--------------------------|
--5--5--5--5--5--5--5--5--|--3--3--3--3--3--3--3--3--|


  E  E  E  E  E  E  E  E     E  E  E  Q    E  E  E     E  E  E  E  E  E  E  E   
--------------------------|-------------------------|--------------------------|
--------------------------|-------------------------|--------------------------|
--------------------------|--3--5--5--5----5--5--5--|--------------------------|
--2--2--2--2--2--2--2--2--|-------------------------|--5--5--5--5--5--5--5--5--|


  E  E  E  E  E  E  E  E     E  E  E  E  E  E  E  E   
--------------------------|--------------------------|
--------------------------|--------------------------|
--------------------------|--------------------------|
--3--3--3--3--3--3--3--3--|--2--2--2--2--2--2--2--2--|


  E  E  E  E  E  E  E  E     E  E  E  E  E  E  E  E   
--------------------------|--------------------------|
--------------------------|--------------------------|
--------------------------|--------------------------|
--1--1--1--1--1--1--1--1--|--5--5--5--5--5--5--5--5--|


  E  E  E  E  E  E  E  E     E  E  E  E  E  E  E  E     E  E  E  Q    E  E  E   
--------------------------|--------------------------|-------------------------|
--------------------------|--------------------------|-------------------------|
--------------------------|--------------------------|--3--5--5--5----5--5--5--|
--3--3--3--3--3--3--3--3--|--2--2--2--2--2--2--2--2--|-------------------------|


  E  E  E  E  E  E  E  E     E  E  E  E  E  E  E  E   
--------------------------|--------------------------|
--------------------------|--------------------------|
--------------------------|--------------------------|
--5--5--5--5--5--5--5--5--|--3--3--3--3--3--3--3--3--|


  E  E  E  E  E  E  E  E     E  E  E  Q    Q.        E  E  E  E  E  E  E  E   
--------------------------|-----------------------|--------------------------|
--------------------------|-----------3-----------|--------------------------|
--------------------------|----------------3------|--------------------------|
--2--2--2--2--2--2--2--2--|--1--1--1--------------|--5--5--5--5--5--5--5--5--|


  E  E  E  E  E  E  E  E     E  E  E  E  E  E  E  E     E  E  E  Q    E  E  E   
--------------------------|--------------------------|-------------------------|
--------------------------|--------------------------|-------------------------|
--------------------------|--------------------------|--3--5--5--5----5--5--5--|
--3--3--3--3--3--3--3--3--|--2--2--2--2--2--2--2--2--|-------------------------|


  E  E  E  E  E  E  E  E     E  E  E  E  E  E  E  E   
--------------------------|--------------------------|
--------------------------|--------------------------|
--------------------------|--------------------------|
--5--5--5--5--5--5--5--5--|--3--3--3--3--3--3--3--3--|


  E  E  E  E  E  E  E  E     E  E  E  Q    E  E  E    
--------------------------|-------------------------||
--------------------------|-------------------------||
--------------------------|--3--5--5--3-------------||
--2--2--2--2--2--2--2--2--|----------------2--3--5--||
Login or Register to remove this ad.