Arashi no Saxophone 2 (The King of Fighters '96) Bass/Guitar Tab

Submitted: Aug 13, 2016 by Bessem

0
Download | No audio :(
Game: The King of Fighters '96
Composer(s): SNK Sound Team
Style: 2 or more instruments, Transcription

This song is also called Yagami Team Theme, Stormy Saxophone 2

Click here for a video example.

AutoScroll: Slow | Medium | Fast
Electric Guitar (Clean)



     W                   S S T T E  T T E  T T S T T T T E  T T T T  
E||-------------------|----------5----------------------------------|
B||-------------------|----------5------7------7---------7----------|
G||-------------------|------5---5--5---7--7---7-7---7---7--7---7---|
D||-------------------|--5-7-5---5--5---7--7---7-7---7---7--7---7---|
A||-------------------|--5-7------------5------5---------5----------|
E||-------------------|---------------------------------------------|


  S S T T E  T T E  T T S T T T T E  T T T T  
----------5----------------------------------|
----------5------7------7---------7----------|
------5---5--5---7--7---7-7---7---7--7---7---|
--5-7-5---5--5---7--7---7-7---7---7--7---7---|
--5-7------------5------5---------5----------|
---------------------------------------------|


  S S T T E  T T E  T T S T T T T E  T T T T  
----------5----------------------------------|
----------5------7------7---------7----------|
------5---5--5---7--7---7-7---7---7--7---7---|
--5-7-5---5--5---7--7---7-7---7---7--7---7---|
--5-7------------5------5---------5----------|
---------------------------------------------|


  S S T T E  T T E  T T E  T T E  T T T T    H.           E  T T T T  
----------5-------------------------------|--5------------L----------|
----------5-------------------------------|--5------------L----------|
------5---5--5---7--L---6--L---2------5---|--5------------L----------|
------5---5--5---7--L---6--L---2--2---5---|--5------------L--7---7---|
--5-7------------5--L---4--L---0--0-------|------------------7---7---|
------------------------------------------|--------------------------|


  H.           E  T T T T    Q.     H        T T T T  
--5------------L----------|--0------5----------------|
--7------------L----------|--1-----------------------|
--7------------L--2---2---|--2---------------2---2---|
--7------------L--4---4---|--3---------------2---2---|
--5------------L----------|--------------------------|
--------------------------|--------------------------|


  T T T T T T E  T T S S T T S T T T T E  T T T T    H.           E  T T T T  
---------------------1-1-----1---------1----------|--5------------L----------|
--------------3------3-3-----3---------3----------|--5------------L----------|
--3---3---3---3------3-3-3---3-3-------3----------|--5------------L--2---2---|
--3---3---3---3--3---3-3-3---3-3---3---3--3---3---|--5------------L--2---2---|
-----------------5-----------------5------5---5---|--------------------------|
--------------------------------------------------|--------------------------|


  H.           E  T T T T    S S T T E  T T E  T T S T T T T E  T T T T  
--5------------L----------|----------5----------------------------------|
--7------------L----------|----------5------7------7---------7----------|
--7------------L--2---2---|------5---5--5---7--7---7-7---7---7--7---7---|
--7------------L--4---4---|--5-7-5---5--5---7--7---7-7---7---7--7---7---|
--5------------L----------|--5-7------------5------5---------5----------|
--------------------------|---------------------------------------------|


  S S T T E  T T E  T T E  T T E  T T T T    H.           E  T T T T  
----------5-------------------------------|--5------------L----------|
----------5-------------------------------|--5------------L----------|
------5---5--5---7--L---6--L---2------5---|--5------------L----------|
--5-7-5---5--5---7--L---6--L---2--2---5---|--5------------L--7---7---|
--5-7------------5--L---4--L---0--0-------|------------------7---7---|
------------------------------------------|--------------------------|


  H.           E  T T T T    Q.     H        T T T T  
--5------------L----------|---------5----------------|
--7------------L----------|--5-----------------------|
--7------------L--2---2---|--5---------------2---2---|
--7------------L--4---4---|--7---------------2---2---|
--5------------L----------|--8-----------------------|
--------------------------|--------------------------|


  T T T T T T E  T T S S T T S T T T T E  T T T T    H.           E  T T T T  
---------------------1-1-----1---------1----------|--5------------L----------|
--------------3------3-3-----3---------3----------|--5------------L----------|
--3---3---3---3------3-3-3---3-3-------3----------|--5------------L--2---2---|
--3---3---3---3--3---3-3-3---3-3---3---3--3---3---|--5------------L--2---2---|
-----------------5-----------------5------5---5---|--------------------------|
--------------------------------------------------|--------------------------|


  H.           E  T T T T    E.  S S S E.  S S S Q     
--5------------L----------|---------------------------|
--7------------L----------|---------------------------|
--7------------L--2---2---|--0---2-----5---2-----6----|
--7------------L--4---4---|--0---2---2-5---2---2-6----|
--5------------L----------|------0---0-3---0---0-4----|
--------------------------|--3------------------------|


  E.  S S S E  S E.  E  E     E.  S S S E.  S S S Q     
---------------------------|---------------------------|
---------------------------|---------------------------|
--0---2-----5----7---6--5--|--0---2-----5---2-----6----|
--0---2---2-5--5-7---6--5--|--0---2---2-5---2---2-6----|
------0---0-3--3-5---4--3--|------0---0-3---0---0-4----|
--3------------------------|--3------------------------|


  E.  S S S E  S E.  E  E     H.           E  T T T T  
---------------------------|--------------------------|
---------------------------|--------------------------|
--0---2-----5----7---6--5--|--2------------L----------|
--0---2---2-5--5-7---6--5--|--2------------L----------|
------0---0-3--3-5---4--3--|--3------------L--3---3---|
--3------------------------|--3------------L--3---3---|


  H.           T T T T T T T T    H.           E  T T T T  
-------------------------------|--------------------------|
--1----------------------------|--3------------L----------|
--0----------------------------|--4------------L------4---|
--2------------2---2---2---2---|--4------------L--4---4---|
--3------------0---0---0---0---|--2------------L--2-------|
-------------------------------|--------------------------|


  H.           E  T T T T    H.           E  T T T T  
--------------------------|--------------------------|
--3------------L----------|--------------------------|
--3------------L----------|--2------------L----------|
--3------------L--0---0---|--2------------L----------|
--1------------L--1---1---|--3------------L--3---3---|
--------------------------|--3------------L--3---3---|


  H.           T T T T T T T T    H.           E  T T T T  
-------------------------------|--------------------------|
--1----------------------------|--3------------L----------|
--0----------------------------|--4------------L------4---|
--2------------2---2---2---2---|--4------------L--4---4---|
--3------------0---0---0---0---|--2------------L--2-------|
-------------------------------|--------------------------|


  E  T T T T T T T T S S S E  T T T T E.   
---------------------0-0---0----------4---|
--3-----------------------------------5---|
--3------3-------3---1-1-1-1--1---1-------|
--3--3---3---3---3---2-2-2-2--2---2---6---|
--1--5-------5------------------------7---|
------------------------------------------|


  E  T T T T T T T T E  T T T T T T T T E  T T T T  
--0------------------0------------------0----------|
--1------------------1------------------1----------|
--2------2-------2---2------2-------2---2--2---2---|
--3--2---2---2---2---3--2---2---2---2---3--2---2---|
--0--0-------0-------0--0-------0-------0----------|
---------------------------------------------------|


  E  T T T T T T T T E  T T T T T T T T E  T T T T  
---------------------------------------------------|
--3------------------3------------------3----------|
--0------------------0------------------0--0---0---|
--0------0-------0---0------0-------0---0--0---0---|
--2--2---2---2---2---2--2---2---2---2---2----------|
--0--0-------0-------0--0-------0-------0----------|


  E  T T T T T T T T E  T T T T T T T T E  T T T T  
--0------------------0------------------0----------|
--1------------------1------------------1----------|
--0------------------0------------------0----------|
--2--2---2---2---2---2--2---2---2---2---2--2---2---|
--0--0---0---0---0---0--0---0---0---0---0--0---0---|
---------------------------------------------------|


  T T T T T T E  T T S S T T S T T T T T T E  T T  
--------------5------5-5-----5-------------5------|
--------------7------7-7-----7-------------7------|
--7---7---7---7------7-7-7---7-7-------7---7------|
--------------7--7---7-7-7---7-7---7---7---7--7---|
--5---5---5---5--9---5-------------9----------9---|
--------------------------------------------------|


  E  T T T T T T T T E  T T T T T T T T E  T T T T  
---------------------------------------------------|
--5------------------5------------------5----------|
--5------------------5------------------5----------|
--7------7-------7---7------7-------7---7--7---7---|
--8--7---7---7---7---8--7---7---7---7---8--7---7---|
--5--5-------5-------5--5-------5-------5----------|


  E  T T T T T T T T E  T T T T T T T T E  T T T T  
---------------------------------------------------|
--3------------------3------------------3----------|
--0------------------0------------------0--0---0---|
--0------0-------0---0------0-------0---0--0---0---|
--2--2---2---2---2---2--2---2---2---2---2----------|
--0--0-------0-------0--0-------0-------0----------|


  E  T T T T T T T T E  T T T T T T T T E  T T T T  
--1------------------1------------------1----------|
--1------------------1------------------1----------|
--2--2---2---2---2---2--2---2---2---2---2--0---0---|
--0--0---0---0---0---0--0---0---0---0---0--0---0---|
---------------------------------------------------|
---------------------------------------------------|


  T T T T T T E  T T S S T T S T T T T S E  T T  
--------------7------7-7-----7-----------7------|
--------------9------9-9-----9-----------9------|
--------------7------7-7-----7---------7-7------|
--9---9---9---9--9---9-9-9---9-9---9---9-9--9---|
--7---7---7---7--7---7-7-7---7-7---7---7-7--7---|
------------------------------------------------|


  E  T T T T T T T T E  T T T T T T T T E  T T T T  
--0------------------0------------------0----------|
--1------------------1------------------1----------|
--2------2-------2---2------2-------2---2--2---2---|
--3--2---2---2---2---3--2---2---2---2---3--2---2---|
--0--0-------0-------0--0-------0-------0----------|
---------------------------------------------------|


  E  T T T T T T T T E  T T T T T T T T E  T T T T  
---------------------------------------------------|
--3------------------3------------------3----------|
--0------------------0------------------0--0---0---|
--0------0-------0---0------0-------0---0--0---0---|
--2--2---2---2---2---2--2---2---2---2---2----------|
--0--0-------0-------0--0-------0-------0----------|


  E  T T T T T T T T E  T T T T T T T T E  T T T T  
--0------------------0------------------0----------|
--1------------------1------------------1----------|
--0------------------0------------------0----------|
--2--2---2---2---2---2--2---2---2---2---2--2---2---|
--0--0---0---0---0---0--0---0---0---0---0--0---0---|
---------------------------------------------------|


  T T T T T T E  T T S S T T S T T T T T T E  T T  
--------------5------5-5-----5-------------5------|
--------------7------7-7-----7-------------7------|
--7---7---7---7------7-7-7---7-7-------7---7------|
--------------7--7---7-7-7---7-7---7---7---7--7---|
--5---5---5---5--9---5-------------9----------9---|
--------------------------------------------------|


  E  T T T T T T T T E  T T T T T T T T E  T T T T  
---------------------------------------------------|
--5------------------5------------------5----------|
--5------------------5------------------5----------|
--7------7-------7---7------7-------7---7--7---7---|
--8--7---7---7---7---8--7---7---7---7---8--7---7---|
--5--5-------5-------5--5-------5-------5----------|


  E  T T T T T T T T E  T T T T T T T T E  T T T T  
---------------------------------------------------|
--3------------------3------------------3----------|
--0------------------0------------------0--0---0---|
--0------0-------0---0------0-------0---0--0---0---|
--2--2---2---2---2---2--2---2---2---2---2----------|
--0--0-------0-------0--0-------0-------0----------|


  E  T T T T T T T T E  T T T T T T T T E  T T T T  
--1------------------1------------------1----------|
--1------------------1------------------1----------|
--2--2---2---2---2---2--2---2---2---2---2--0---0---|
--0--0---0---0---0---0--0---0---0---0---0--0---0---|
---------------------------------------------------|
---------------------------------------------------|


  T T T T T T E  T T S S T T S T T T T S E  T T  
--------------7------7-7-----7-----------7------|
--------------9------9-9-----9-----------9------|
--------------7------7-7-----7---------7-7------|
--9---9---9---9--9---9-9-9---9-9---9---9-9--9---|
--7---7---7---7--7---7-7-7---7-7---7---7-7--7---|
------------------------------------------------|


  S S T T E  T T E  T T S T T T T E  T T T T  
----------5----------------------------------|
----------5------7------7---------7----------|
------5---5--5---7--7---7-7---7---7--7---7---|
--5-7-5---5--5---7--7---7-7---7---7--7---7---|
--5-7------------5------5---------5----------|
---------------------------------------------|


  S S T T E  T T E  T T S T T T T E  T T T T  
----------5----------------------------------|
----------5------7------7---------7----------|
------5---5--5---7--7---7-7---7---7--7---7---|
--5-7-5---5--5---7--7---7-7---7---7--7---7---|
--5-7------------5------5---------5----------|
---------------------------------------------|


  S S T T E  T T E  T T S T T T T E  T T T T  
----------5----------------------------------|
----------5------7------7---------7----------|
------5---5--5---7--7---7-7---7---7--7---7---|
--5-7-5---5--5---7--7---7-7---7---7--7---7---|
--5-7------------5------5---------5----------|
---------------------------------------------|


  S S T T E  T T E  T T E  T T E  T T T T    H.           E  T T T T  
----------5-------------------------------|--5------------L----------|
----------5-------------------------------|--5------------L----------|
------5---5--5---7--L---6--L---2------5---|--5------------L----------|
------5---5--5---7--L---6--L---2--2---5---|--5------------L--7---7---|
--5-7------------5--L---4--L---0--0-------|------------------7---7---|
------------------------------------------|--------------------------|


  H.           E  T T T T    Q.     H        T T T T  
--5------------L----------|--0------5----------------|
--7------------L----------|--1-----------------------|
--7------------L--2---2---|--2---------------2---2---|
--7------------L--4---4---|--3---------------2---2---|
--5------------L----------|--------------------------|
--------------------------|--------------------------|


  T T T T T T E  T T S S T T S T T T T E  T T T T    H.           E  T T T T  
---------------------1-1-----1---------1----------|--5------------L----------|
--------------3------3-3-----3---------3----------|--5------------L----------|
--3---3---3---3------3-3-3---3-3-------3----------|--5------------L--2---2---|
--3---3---3---3--3---3-3-3---3-3---3---3--3---3---|--5------------L--2---2---|
-----------------5-----------------5------5---5---|--------------------------|
--------------------------------------------------|--------------------------|


  H.           E  T T T T    S S T T E  T T E  T T S T T T T E  T T T T   
--5------------L----------|----------5----------------------------------||
--7------------L----------|----------5------7------7---------7----------||
--7------------L--2---2---|------5---5--5---7--7---7-7---7---7--7---7---||
--7------------L--4---4---|--5-7-5---5--5---7--7---7-7---7---7--7---7---||
--5------------L----------|--5-7------------5------5---------5----------||
--------------------------|---------------------------------------------||



Organ



     W                   W                   W                 
E||-------------------|-------------------|-------------------|
B||-------------------|-------------------|-------------------|
G||-------------------|-------------------|-------------------|
D||-------------------|-------------------|-------------------|
A||-------------------|-------------------|-------------------|
E||-------------------|-------------------|-------------------|


  W                   H.           E  T T  T  T     W                 
-------------------|------------------0-3--7-10-|--12----------------|
-------------------|------------------3-6-10-13-|--10----------------|
-------------------|----------------------------|--------------------|
-------------------|----------------------------|--------------------|
-------------------|----------------------------|--------------------|
-------------------|----------------------------|--------------------|


   W                    W                    Q.      H        E   
--10----------------|---8----------------|--10------13--------L--|
--10----------------|--10----------------|--11------15--------L--|
--------------------|--------------------|-----------------------|
--------------------|--------------------|-----------------------|
--------------------|--------------------|-----------------------|
--------------------|--------------------|-----------------------|


   W                    H.           E   T  T  T  T    H.            E   E   
--12----------------|--10------------L---------0----|---------------15--13--|
--------------------|--10------------L--13-10-------|---------------15--15--|
--14----------------|-------------------16-12-10--7-|-----------------------|
--------------------|----------------------------10-|-----------------------|
--------------------|-------------------------------|-----------------------|
--------------------|-------------------------------|-----------------------|


  W                    W                    W                 
-------------------|--12----------------|--10----------------|
-------------------|--10----------------|--10----------------|
-------------------|--------------------|--------------------|
-------------------|--------------------|--------------------|
-------------------|--------------------|--------------------|
-------------------|--------------------|--------------------|


   W                    Q.      H        E      W                 
---8----------------|--10------13--------L--|--12----------------|
--10----------------|--11------15--------L--|--------------------|
--------------------|-----------------------|--14----------------|
--------------------|-----------------------|--------------------|
--------------------|-----------------------|--------------------|
--------------------|-----------------------|--------------------|


   H.           E   T  T  T  T    E.  S E  E.  S E  Q     
--10------------L---------0----|-------------------------|
--10------------L--13-10-------|-------------------------|
-------------------16-12-10--7-|--0--------5--------6----|
----------------------------10-|------7--------7----6----|
-------------------------------|-------------------------|
-------------------------------|-------------------------|


  E.  S E  E.  E.  E  E     E.  S E  E.  S E  Q       E.  S E  E.  E.  E  E   
-------------------------|-------------------------|-------------------------|
-------------------------|-----------1--------2----|-----------1---3---2--1--|
--0--------5---7---6--5--|------2--------2----1----|--0---2--------2---1--0--|
------7--------7---6--5--|--5----------------------|-------------------------|
-------------------------|-------------------------|-------------------------|
-------------------------|-------------------------|-------------------------|


  W                   W                   W                   W                 
-------------------|-------------------|-------------------|-------------------|
-------------------|-------------------|-------------------|-------------------|
-------------------|-------------------|-------------------|-------------------|
-------------------|-------------------|-------------------|-------------------|
-------------------|-------------------|-------------------|-------------------|
-------------------|-------------------|-------------------|-------------------|


  W                   W                   W                 
-------------------|-------------------|-------------------|
-------------------|-------------------|-------------------|
-------------------|-------------------|-------------------|
-------------------|-------------------|-------------------|
-------------------|-------------------|-------------------|
-------------------|-------------------|-------------------|


   E.   E.   E.   E  S  S  E.      W                    W                 
--18---17---16-----------------|--------------------|--------------------|
-----------------17-------15---|--13----------------|--12----------------|
-----------------------16-16---|--14----------------|--12----------------|
-------------------------------|--------------------|--------------------|
-------------------------------|--------------------|--------------------|
-------------------------------|--------------------|--------------------|


   Q.      H        E      E.   E.   Q    E.  E.      W                 
----------12--------L--|--14---12---10----8---7---|---8----------------|
--10------10--------L--|--------------------------|--10----------------|
-----------------------|--------------------------|--------------------|
-----------------------|--------------------------|--------------------|
-----------------------|--------------------------|--------------------|
-----------------------|--------------------------|--------------------|


  W                   W                   Q.      Q.      S  E.   
--7----------------|--5----------------|--7------12------12-16---|
--8----------------|--6----------------|--9------12---------17---|
-------------------|-------------------|-------------------------|
-------------------|-------------------|-------------------------|
-------------------|-------------------|-------------------------|
-------------------|-------------------|-------------------------|


   W                    W                    W                 
--------------------|--------------------|--12----------------|
--13----------------|--12----------------|--10----------------|
--14----------------|--12----------------|--------------------|
--------------------|--------------------|--------------------|
--------------------|--------------------|--------------------|
--------------------|--------------------|--------------------|


   Q.      E.   Q.     S     W                   W                 
--10------14---10------L-|---8----------------|--7----------------|
--10------15---10------L-|--10----------------|--8----------------|
-------------------------|--------------------|-------------------|
-------------------------|--------------------|-------------------|
-------------------------|--------------------|-------------------|
-------------------------|--------------------|-------------------|


  W                   Q.      Q.      S  E.     W                 
--5----------------|--7------12------12-16---|-------------------|
--6----------------|--9------12---------17---|-------------------|
-------------------|-------------------------|-------------------|
-------------------|-------------------------|-------------------|
-------------------|-------------------------|-------------------|
-------------------|-------------------------|-------------------|


  W                   W                   H.           E  T T  T  T  
-------------------|-------------------|------------------0-3--7-10-|
-------------------|-------------------|------------------3-6-10-13-|
-------------------|-------------------|----------------------------|
-------------------|-------------------|----------------------------|
-------------------|-------------------|----------------------------|
-------------------|-------------------|----------------------------|


   W                    W                    W                 
--12----------------|--10----------------|---8----------------|
--10----------------|--10----------------|--10----------------|
--------------------|--------------------|--------------------|
--------------------|--------------------|--------------------|
--------------------|--------------------|--------------------|
--------------------|--------------------|--------------------|


   Q.      H        E      W                    H.           E   T  T  T  T  
--10------13--------L--|--12----------------|--10------------L---------0----|
--11------15--------L--|--------------------|--10------------L--13-10-------|
-----------------------|--14----------------|-------------------16-12-10--7-|
-----------------------|--------------------|----------------------------10-|
-----------------------|--------------------|-------------------------------|
-----------------------|--------------------|-------------------------------|


  H.            E   E    
---------------15--13--||
---------------15--15--||
-----------------------||
-----------------------||
-----------------------||
-----------------------||



Sax



     W                   W                   W                 
E||-------------------|-------------------|-------------------|
B||-------------------|-------------------|-------------------|
G||-------------------|-------------------|-------------------|
D||-------------------|-------------------|-------------------|
A||-------------------|-------------------|-------------------|
E||-------------------|-------------------|-------------------|


  W                   W                   Q    S   S S S E     Q    S S  
-------------------|-------------------|--------------------------------|
-------------------|-------------------|---------------8----9g10--------|
-------------------|-------------------|-------------9--------------9---|
-------------------|-------------------|-------7h-10--------------------|
-------------------|-------------------|--------------------------------|
-------------------|-------------------|--------------------------------|


   E.   E.   E  E   T  E.  T  S S       E.   E.  Q    S S  S  S  S S  
----------------------------------|----------------------------------|
----------------------------------|----------------------------------|
--11------------------------------|----------------------------------|
-------12----------11-12---L------|--9g10---12------------------10---|
------------12---------------12---|---------------------8-10-12------|
----------------------------------|----------------------------------|


      E.   E.  H        E     Q    S  S S S E     Q    S S  
---------------------------|-------------------------------|
---------------------------|--------------8----9g10--------|
---------------------------|------------9--------------9---|
--10g12---10---------------|-------7-10--------------------|
---------------------------|-------------------------------|
---------------------------|-------------------------------|


  E.  E.  E  E    E  S   E.       E.  E.  T T T T H           W                 
-----------------------------|-----------------------------|-------------------|
--7-------------2g3----2g3---|--2g3------------------------|-------------------|
------7----------------------|--------5---4-2--------------|-------------------|
----------7------------------|----------------5-3----------|-------------------|
-----------------------------|-----------------------------|-------------------|
-----------------------------|-----------------------------|-------------------|


  Q    S   S S S E     Q    S S     E.   E.   E  E   T  E.  T  S S  
--------------------------------|----------------------------------|
---------------8----9g10--------|----------------------------------|
-------------9--------------9---|--11------------------------------|
-------7h-10--------------------|-------12----------11-12---L------|
--------------------------------|------------12---------------12---|
--------------------------------|----------------------------------|


     E.   E.  Q    S S  S  S  S S        E.   E.  H        E   
----------------------------------|---------------------------|
----------------------------------|---------------------------|
----------------------------------|---------------------------|
--9g10---12------------------10---|--10g12---10---------------|
---------------------8-10-12------|---------------------------|
----------------------------------|---------------------------|


  Q    S  S S  S E     Q    S S    E.  E.  E  E    E  S   E.   
--------------------------------|-----------------------------|
--------------------9g10--------|--7-------------2g3----2g3---|
------------9-12------------9---|------7----------------------|
-------7-10---------------------|----------7------------------|
--------------------------------|-----------------------------|
--------------------------------|-----------------------------|


    E.  E.  T T T T H           W                   W                 
-----------------------------|-------------------|-------------------|
--2g3------------------------|-------------------|-------------------|
--------5---4-2--------------|-------------------|-------------------|
----------------5-3----------|-------------------|-------------------|
-----------------------------|-------------------|-------------------|
-----------------------------|-------------------|-------------------|


                  |-3-|                              
  H.           E  S S S    E.  Q.     S   T Q    S.  
------------------------|---------------------------|
------------------------|--3---5--------6g7-8----L--|
--------------------0-2-|---------------------------|
------------------2-----|---------------------------|
------------------------|---------------------------|
------------------------|---------------------------|


  Q    E    Q     Q    S. T      E.  Q    S Q    S S E   
----------------------------|---------------------------|
--L-------7g8----10----8----|--6g7----------------------|
----------------------------|--------7----L----------2--|
----------------------------|--------------------4-5----|
----------------------------|---------------------------|
----------------------------|---------------------------|


  E.  E.  E  E    E  S   E.       E.  Q.     S   T Q    S.  
-----------------------------|--------0--------------------|
----------------2g3----2g3---|--2g3------------6g7-8----L--|
--3---2----------------------|-----------------------------|
----------3------------------|-----------------------------|
-----------------------------|-----------------------------|
-----------------------------|-----------------------------|


  Q    E    Q     Q    S. T      E.  Q    S Q    S T  E  T  
----------------------------|------------------------------|
--L-------7g8----10----8----|--6g7-----------------9-10--L-|
----------------------------|--------7----L----------------|
----------------------------|------------------------------|
----------------------------|------------------------------|
----------------------------|------------------------------|


      E.   E.  E.  E  S S E  T T    H        E      E.   E.   
---------------------------------|---------------------------|
--10g11---10---9-----------------|---------------------------|
-------------------9------7--L---|--9-----------10g12---10---|
------------------------9--------|---------------------------|
---------------------------------|---------------------------|
---------------------------------|---------------------------|


  Q    S S Q     E.  E.     E.  Q    S E     E.   E.   
-------------------------|----------------------------|
-------------------------|------5----L----9g10--------|
--9----L-------------7---|--7-------------------------|
-----------9----10-------|-----------------------10---|
-------------------------|----------------------------|
-------------------------|----------------------------|


    E.  E.  E  E    E.  E.     Q    E  Q      E.  E.   
----------------------------|---------------------0---|
--2g3-------------6g7-------|---------------5g6-------|
--------5---2-----------7---|--5-------5--------------|
----------------------------|-------------------------|
----------------------------|-------------------------|
----------------------------|-------------------------|


  Q    S S   Q    E.  E.     E.  Q.     S T Q    S.  
--------------------------|---------------2-3----L--|
--0----L---4g5----3---0---|--1---3------------------|
--------------------------|-------------------------|
--------------------------|-------------------------|
--------------------------|-------------------------|
--------------------------|-------------------------|


  S S S S S S S E  S S S S S S S    H        E    E.   E.   
-----------------------------0-4-|--5----------------------|
----------------0------0-1-3-----|--------------7g8--------|
--1-----1-2-1-2----1-2-----------|--------------------10---|
----2-4--------------------------|-------------------------|
---------------------------------|-------------------------|
---------------------------------|-------------------------|


  Q    S S Q     E.  E.     E.  Q    S E     E.   E.   
-------------------------|----------------------------|
-------------------------|------5----L----9g10--------|
--9----L-------------7---|--7-------------------------|
-----------9----10-------|-----------------------10---|
-------------------------|----------------------------|
-------------------------|----------------------------|


    E.  E.  E  E    E.  E.     Q    E  Q      E.  E.   
----------------------------|---------------------0---|
--2g3-------------6g7-------|---------------5g6-------|
--------5---2-----------7---|--5-------5--------------|
----------------------------|-------------------------|
----------------------------|-------------------------|
----------------------------|-------------------------|


  Q    S S   Q    E.  E.     E.  Q.     S T Q    S.    E.  E.  E.  E.  T E.  T  
--------------------------|---------------2-3----L--|--4---0-------------------|
--0----L---4g5----3---0---|--1---3------------------|----------3---0---2-3-----|
--------------------------|-------------------------|--------------------------|
--------------------------|-------------------------|--------------------------|
--------------------------|-------------------------|--------------------------|
--------------------------|-------------------------|--------------------------|


  E.   E.   T  T  T  T  T  T T  T Q.        W                 
------17---15----------------------------|-------------------|
--1-----------17-13----------------------|-------------------|
--------------------14-10----------------|-------------------|
--------------------------12-9-----------|-------------------|
-------------------------------10--------|-------------------|
-----------------------------------------|-------------------|


  W                   W                   Q    S   S S S E     Q    S S  
-------------------|-------------------|--------------------------------|
-------------------|-------------------|---------------8----9g10--------|
-------------------|-------------------|-------------9--------------9---|
-------------------|-------------------|-------7h-10--------------------|
-------------------|-------------------|--------------------------------|
-------------------|-------------------|--------------------------------|


   E.   E.   E  E   T  E.  T  S S       E.   E.  Q    S S  S  S  S S  
----------------------------------|----------------------------------|
----------------------------------|----------------------------------|
--11------------------------------|----------------------------------|
-------12----------11-12---L------|--9g10---12------------------10---|
------------12---------------12---|---------------------8-10-12------|
----------------------------------|----------------------------------|


      E.   E.  H        E     Q    S  S S S E     Q    S S  
---------------------------|-------------------------------|
---------------------------|--------------8----9g10--------|
---------------------------|------------9--------------9---|
--10g12---10---------------|-------7-10--------------------|
---------------------------|-------------------------------|
---------------------------|-------------------------------|


  E.  E.  E  E    E  S   E.       E.  E.  T T T T H          
-----------------------------|-----------------------------||
--7-------------2g3----2g3---|--2g3------------------------||
------7----------------------|--------5---4-2--------------||
----------7------------------|----------------5-3----------||
-----------------------------|-----------------------------||
-----------------------------|-----------------------------||



Bass



     W                   S S T T E  S E.  E.  E  E   
G||-------------------|-----------------------------|
D||-------------------|-----------------------------|
A||-------------------|---------------5-------5--3--|
E||-------------------|--3-5-5---5--3-----2---------|


  S S T T E  S E.  E.  E  E     S S T T E  S E.  E.  E  E   
-----------------------------|-----------------------------|
---------------0-------0-----|---------------0-------0-----|
----0-0---0---------------3--|----0-0---0---------------3--|
--3----------3-----2---------|--3----------3-----2---------|


  S S T T E  S E.  E.  Q       W                   W                 
----------------------------|-------------------|-------------------|
---------------0------------|-------------------|--0----------------|
----0-0---0--------4---0----|--3----------------|-------------------|
--3----------3--------------|-------------------|-------------------|


  Q.     H        E     Q.     H        E     W                 
---------------------|---------------------|-------------------|
---------3--------L--|---------3--------L--|-------------------|
--3------------------|--1------------------|--3----------------|
---------------------|---------------------|-------------------|


  W                   S S T T E  S E.  E.  E  E     S S T T E  S E.  E.  Q     
-------------------|-----------------------------|----------------------------|
--0----------------|---------------0-------0-----|---------------0------------|
-------------------|----0-0---0---------------3--|----0-0---0--------4---0----|
-------------------|--3----------3-----2---------|--3----------3--------------|


  W                   W                   Q.     H        E   
-------------------|-------------------|---------------------|
-------------------|--0----------------|---------3--------L--|
--3----------------|-------------------|--3------------------|
-------------------|-------------------|---------------------|


  Q.     H        E     W                   W                 
---------------------|-------------------|-------------------|
---------3--------L--|-------------------|--0----------------|
--1------------------|--3----------------|-------------------|
---------------------|-------------------|-------------------|


  E.  S S T T E.  S S T T Q       E.  S S T T E.  E.  E  E   
-------------------------------|----------------------------|
-------------------------------|------------------0---------|
------0---0---3---0---0---4----|------0---0---3-------4--3--|
--3----------------------------|--3-------------------------|


  E.  S S T T E.  S S T T Q       E.  S S T T E.  E.  E  E   
-------------------------------|----------------------------|
-------------------------------|------------------0---------|
------0---0---3---0---0---4----|------0---0---3-------4--3--|
--3----------------------------|--3-------------------------|


  E  S S S S E  S S S S E  E     E  S S S S E  S S S S E  E   
------------------------------|-------0----------0-----------|
-------2----------0-----------|---------------------------2--|
--0--0-----0-0--0-----0-0--3--|--3--3-----3-3--3-----3-3-----|
------------------------------|------------------------------|


  E  S S S S E  S S S S E  E     E  S S S S S E  S E  E  E   
------------------------------|-------------3-3--2-2--------|
-------4----------2--------0--|-------3---------------3--0--|
--2--2-----2-2--2-----2-2-----|--1--1-----1-----------------|
------------------------------|-----------------------------|


  E  S S S S E  S S S S E  E     E  S S S S E  S S S S E  E   
------------------------------|-------0----------0-----------|
-------2----------0-----------|---------------------------2--|
--0--0-----0-0--0-----0-0--3--|--3--3-----3-3--3-----3-3-----|
------------------------------|------------------------------|


  E  S S S S E  S S S S E  E     E  S S S S S S T T E.  T T E.   
------------------------------|---------------------------------|
-------4----------2--------0--|-------3-----0-2-2---------------|
--2--2-----2-2--2-----2-2-----|--1--1-----1---------2---2-------|
------------------------------|-----------------------------4---|


  E  T T E  T T S S T T T T E.  E.     E  T T E  T T S S T T T T E.  E.   
------------------------------------|------------------------------------|
------------------------------------|------------------------------------|
----------------2-3---------3---0---|----------------0-2---------2-------|
--1--1---1--1-------1---1-----------|--0--0---0--0-------0---0-------3---|


  E  T T E  T T S S T T T T E.  E.     E  T T E  T T S S T T T T E.  E.   
------------------------------------|------------------------------------|
----------------0-2---------2-------|------------------0---------0-------|
--0--0---0--0-------0---0-------3---|--0--0---0--0---3---0---0-------2---|
------------------------------------|------------------------------------|


  E  T T E  T T S S T T T T E.  E.     E  T T E  T T S S T T T T E.  E.   
------------------------------------|------------------------------------|
------------------------------------|------------------------------------|
----------------2-3---------3---0---|----------------0-2---------2-------|
--1--1---1--1-------1---1-----------|--0--0---0--0-------0---0-------3---|


  E.  E.  E  T T T T E.  E.     E  T T E  T T E  T T T T E.  E.   
-----------------------------|-----------------------------------|
--0------------------0-------|-----------------------------------|
------3---0--0---0-------3---|---------------------------2-------|
-----------------------------|--0--0---0--0---4--0---0-------4---|


  E  T T E  T T S S T T T T E.  E.     E  T T E  T T S S T T T T E.  E.   
------------------------------------|------------------------------------|
------------------------------------|------------------------------------|
----------------2-3---------3---0---|----------------0-2---------2-------|
--1--1---1--1-------1---1-----------|--0--0---0--0-------0---0-------3---|


  E  T T E  T T S S T T T T E.  E.     E  T T E  T T S S T T T T E.  E.   
------------------------------------|------------------------------------|
----------------0-2---------2-------|------------------0---------0-------|
--0--0---0--0-------0---0-------3---|--0--0---0--0---3---0---0-------2---|
------------------------------------|------------------------------------|


  E  T T E  T T S S T T T T E.  E.     E  T T E  T T S S T T T T E.  E.   
------------------------------------|------------------------------------|
------------------------------------|------------------------------------|
----------------2-3---------3---0---|----------------0-2---------2-------|
--1--1---1--1-------1---1-----------|--0--0---0--0-------0---0-------3---|


  E.  E.  E  T T T T E.  E.     E  T T E  T T E  T T E.  Q     
-----------------------------|--------------------------------|
--0------------------0-------|---------------------------2----|
------3---0--0---0-------3---|-----------------------2--------|
-----------------------------|--0--0---0--0---4--0------------|


  S S T T E  S E.  E.  E  E     S S T T E  S E.  E.  E  E   
-----------------------------|-----------------------------|
---------------0-------0-----|---------------0-------0-----|
----0-0---0---------------3--|----0-0---0---------------3--|
--3----------3-----2---------|--3----------3-----2---------|


  S S T T E  S E.  E.  E  E     S S T T E  S E.  E.  Q       W                 
-----------------------------|----------------------------|-------------------|
---------------0-------0-----|---------------0------------|-------------------|
----0-0---0---------------3--|----0-0---0--------4---0----|--3----------------|
--3----------3-----2---------|--3----------3--------------|-------------------|


  W                   Q.     H        E     Q.     H        E   
-------------------|---------------------|---------------------|
--0----------------|---------3--------L--|---------3--------L--|
-------------------|--3------------------|--1------------------|
-------------------|---------------------|---------------------|


  W                   W                   S S T T E  S E.  E.  E  E    
-------------------|-------------------|-----------------------------||
-------------------|--0----------------|---------------0-------0-----||
--3----------------|-------------------|----0-0---0---------------3--||
-------------------|-------------------|--3----------3-----2---------||
Login or Register to remove this ad.