Fragment (Kimikiss: Pure Rouge) Guitar Tab

Submitted: Aug 28, 2015 by Coolbreeze (Last updated: Aug 28, 2015)

5
Average: 5 (1 vote)
Download | Listen
Game: Kimikiss: Pure Rouge
Composer(s): Noriyuki Iwadare, Hikaru Nanase, Masaru Yokoyama
Style: Fingerstyle, Transcription

AutoScroll: Slow | Medium | Fast
			Fragment
		~Kimikiss Pure Rouge O.S.T~

Music by Nanase Hikaru
Tabbed by Coolbreeze
Tempo = 68



             ^                                            
     Q       Q    Q    Q    E  E     Q    E  E  H         
E||-------|--2--------------2--3--|--0-------0--L--------|
B||-------|--3---------3----------|-------0--------------|
G||--2----|--2----2---------------|----------------------|
D||-------|--0--------------------|--0-------------------|
A||-------|--0--------------------|----------------------|
E||-------|-----------------------|----------------------|


  ^                                                 ^                        
  Q    E  E  Q    E  E     E  E  E  S S H           Q    H        S  S S  S  
--0---------------0--2--|------------------------|--7-------------7s-9-9s-7-|
--2---------------------|--3----------3-L--------|--5-----------------------|
--0----0-----0----------|--------4---------------|--7----7------------------|
--2-------2-------------|-----4-----4------------|--5-----------------------|
--0---------------------|--2---------------------|--------------------------|
------------------------|------------------------|--------------------------|


            ^           ^                                                
  Q    Q    H           E  E  E  E  E  E  E  E     E  E  E  E  H         
--5----5----2--------|--3--------------3--2--0--|-----------------------|
--5---------2--------|--0-----0-----------------|--3--------3--2--------|
------------2--------|--0--0-----0-----4--2--0--|--------0-----0--------|
--4---------4--------|--0-----------2-----------|-----2-----------------|
---------------------|--2-----------------------|-----------------------|
---------------------|--3-----------------------|--3--------------------|


  ^                                                ^                       
  Q    Q    Q    E  E     E  E  E  S S H           E  E  E  E  Q    E  E   
--2--------------2--3--|--0----------0-L--------|--0----------------0--2--|
--3---------3----------|--------0--0------------|--2-----------2----------|
--2----2---------------|-----0------------------|--0--------0-------------|
--0--------------------|--0----------0-L--------|--2--2--2----------------|
--0--------------------|------------------------|--0----------------------|
-----------------------|------------------------|-------------------------|


                          ^                                       ^          
  E  E  E  E  H           Q    Q    S S S  E  S. S.    E  E  Q    Q    Q     
-----------------------|--7---------------10--9--7--|--5-----0----2---------|
--3--------3-----------|--5---------3-5-------------|-----2-------4---------|
--------4-----4--------|--7-------------------------|-------------2---------|
-----4-----------------|--5----5--------------------|--4----------4----4----|
--2--------------------|----------------------------|-----------------------|
-----------------------|----------------------------|-----------------------|


  ^                                   ^                                      
  Q    Q    E  E  Q       E  E  E  E  H           E  E  E  E  E  E  S S S S  
--3------------0-------|--------------2--------|-----------0--2-----3-2-----|
--0---------3-----2----|--3--------3--3--------|--3-----3---------------3---|
--0----0---------------|--------0-----2--------|-----2-----------2--------2-|
--0--------------------|-----0--------0--------|--0-------------------------|
--2---------0----------|--------------0--------|----------------------------|
--3--------------------|--3--------------------|----------------------------|


  E  E  E  Q    E  E  E     E  E  E  E  E  E  S S S S  
--------3----------------|-----------0--2-----3-2-----|
--3--------3-------------|--3-----3--------3------3---|
-----2----------2--2-----|-----2--------------------2-|
--0-------------------0--|--0-------------------------|
-------------------------|----------------------------|
-------------------------|----------------------------|


                            ^   v                       ^ v                   
  E  E  E  Q    E  E  E     E.  E.  E  Q    E  E     E  S E  E  E  E  S Q     
--------3----------------|--3---3------3----------|-----2-2-----------2-L----|
--3--------3-------------|--3---3-----------3-----|-----3-3--3---------------|
-----2----------2-----0--|--0---0---2-------------|-----2-2-----2------------|
--0----------------0-----|--0---0-----------------|-----0-0--------0---------|
-------------------------|--2---2-----------------|-----0-0------------------|
-------------------------|--3---3--------------3--|--2-----------------------|


  ^    ^    ^               ^           ^          
  Q    Q    S  S E  Q       E  E  E  E  Q    Q     
--0----0----0h-2-0--4----|--3-----------0---------|
--0----0----0----0-------|--3-----3-----2---------|
--1----1----1----1-------|--0--2-----2--0----2----|
--2----2----2------------|--0-----------2---------|
--2----2----2------------|--2-----------0----0----|
--0----0----0------------|--3---------------------|


  E  E  E  E  S S E  S S S S    E  E  E  Q    E  Q     
-----------0--0-2----3-2-----|--------3---------------|
--------3----------------3---|--3--------3------------|
-----2------------2--------2-|-----2----------2-------|
--0--------------------------|--0----------------0----|
-----------------------------|------------------------|
-----------------------------|------------------------|


  ^                                                   
                   |--3--|                            
  E  E  E  E  Q    E  E  E     E  E  E  E  Q    Q     
--0-----------0----3--2--0--|------------------------|
--2--------2----------------|--5--------3------------|
--0-----0----------4--2--0--|--------2-----2---------|
--2--2----------------------|-----4-------------4----|
--0-------------------------|--2---------------------|
----------------------------|------------------------|


           ^                              ^            ^                     
                   |--3--|                                                   
  E  E  E  Q.      E  E  E     E  E  Q    Q    Q       E  E  Q    Q    Q     
-----------7------10--9--7--|--5-----0----2---------|--3--------------------|
-----3--5--5----------------|-----2-------4---------|--0-----0----3----2----|
-----------7----------------|-------------2---------|--0--0-------0---------|
--5--------5----------------|--4----------4----4----|--0--------------------|
----------------------------|-------------2---------|--2----------0---------|
----------------------------|-----------------------|--3--------------------|


                          ^                                               
  E  E  E  E  H           E  E  Q    Q    E  E     E  E  E  S S H         
--------3-----2--------|--2---------------2--3--|--0----------0-L--------|
--3--------------------|--3-----3---------------|--------0--0------------|
-----2-----2-----------|--2--2------------------|-----0------------------|
--0--------------------|--0----------0----------|--0---------------------|
-----------------------|--0---------------------|------------------------|
-----------------------|------------------------|------------------------|


  ^                                                  ^                  
  E  E  E  E  Q    E  E     E  E  E  S S H           W                  
--2----------------2--3--|--0----------0-L--------|--2----------------||
--3-----3-----3----------|--------0--0------------|--3----------------||
--2--2-----2-------------|-----0------------------|--2----------------||
--0----------------------|--0---------------------|--0----------------||
--0----------------------|------------------------|--0----------------||
-------------------------|------------------------|-------------------||
Login or Register to remove this ad.