Aozora Loop (Kimikiss: Pure Rouge) Guitar Tab

Submitted: Jan 23, 2011 by diralark

5
Average: 5 (3 votes)
Download | Listen
Game: Kimikiss: Pure Rouge
Composer(s): Noriyuki Iwadare, Hikaru Nanase, Masaru Yokoyama
Style: Arrangement, Fingerstyle

AutoScroll: Slow | Medium | Fast
         Aozora Loop (J.X piano version)        from Kimikiss ~ Pure Rouge ~

Music by Noriyuki Iwadare, Hikaru Nanase, Masaru Yokoyama >> arr. for piano by Jie Jack Xu
 >> guitar tab. by Diralark                              


Guitar, tempo 108, let ring

      E  E  E  E  E  E  E  E     E  E  E  E  E  E  E  E     E  E  E  E  E  E  E  E   
E||---------------------------|--------------------------|--------------------------|
B||---------------0--------0--|--------------0--------0--|--------------1--------1--|
G||*-----0--------------------|-----0--------------------|-----2--------------------|
D||*--------0--2-----0--2-----|--------0--2-----0--2-----|--0-----2--3-----2--3-----|
A||---3-----------------------|--3-----------------------|--------------------------|
E||---------------------------|--------------------------|--------------------------|

                             Segno
  E  E  E  E  E  E  E  E       E  E  E  E  E  E  E  E     E  E  E  E  E  E  E  E   
---------------------------||--3-----3-----3-----------|--------------------------|
--------------1--------1---||--------------0-----1--0--|--0--1--1-----1--------1--|
-----2--------------------*||-----0--------------------|--------------------------|
--0-----2--3-----2--3-----*||--------0--2-----0--2-----|--0-----2--3-----2--3-----|
---------------------------||--3-----------------------|-----0--------------------|
---------------------------||--------------------------|--------------------------|


  E  E  E  E  E  E  E  E     E  E  E  E  H             E  E  E  E  E  Q    E   
--------------------------|-----------------------||--------------------------|
--------------0--------0--|--------------1--------||---------------1--1----0--|
-----0--------------------|-----2-----------------||*-----0-----------0-------|
--------0--2-----0--2-----|--0-----2--3-----------||*--------0--2-------------|
--3-----------------------|-----------------------||---3----------------------|
--------------------------|-----------------------||--------------------------|


  E  E  E  E  E  Q    E     E  E  E  E  E  Q    E     E  E  E  E  E  Q    E   
-----------------0-------|-------------------------|-----------------0-------|
-----1-----3--L-------1--|--------------1--1----0--|-----1-----3--L----------|
-----0-----------0-------|-----0-----------0-------|-----0-----------0----2--|
--------0--2--L----------|--------0--2-------------|--------0--2--L----------|
--3----------------------|--3----------------------|--3----------------------|
-------------------------|-------------------------|-------------------------|


                            III       -]                                      
  E  E  E  E  E  Q    E     E   E  E  E  E  Q    E     E  E  E  E  E  Q.      
-----------------0-------|------------------0-------|------------------------|
-----------3--L--1-------|------------3----------1--|-----------------0------|
--------2--0--L-------1--|------------5--L----------|-----0------------------|
--------3----------------|------3--6----------------|--------0--2--L---------|
-----3-------------------|--------------------------|--3---------------------|
--1----------------------|--4-----------------------|------------------------|


1._______________          2.___________________
  E  E  E  E  H             E  E  E  E  E  E  E  E     E  E  E  E  E  Q    E   
------------------------||-----------0--L--1--0-----|-----------------3-------|
------------------------||-----------------0-----3--|--1--------------1----1--|
-----0-----------------*||-----0--------------------|--------0--0--L----------|
--------0--2--L--------*||--------0--2--L-----------|--------3----------------|
--3---------------------||--3-----------------------|-----3-------------------|
------------------------||--------------------------|--1----------------------|


  E  E  E  E  E  E  E  E     E  E  E  E  E  Q    E     E  E  E  E  E  E  E  E   
-----------0--L--1--0-----|-----------------3-------|-----0-----0--L--1--0-----|
-----------------0-----3--|--1--------------1----3--|-----------------------3--|
-----------0--L-----------|--------0--0--L----------|-----0-----------0--------|
--------2-----------------|--0-----2--3-------------|--------0--2--L-----------|
-----2--------------------|-----0-------------------|--3-----------------------|
--0-----------------------|-------------------------|--------------------------|


  E  E  E  E  E  Q    E     E  E  E  E  E  E  E  E     E  E  E  E  E  E  E  E   
-----------------3-------|--------------------------|-----------------0--1--0--|
--1--------------1----1--|-----------------0--1-----|--1-----1-----3--1--------|
--------0--0--L----------|-----------0--L--------0--|-----0-----0--------------|
--0-----2--3-------------|--------2-----------------|--0-----2--3--------------|
-----0-------------------|-----2--------------------|-----0--------------------|
-------------------------|--0-----------------------|--------------------------|


                            ^                                            
  E  E  E  E   E  Q.        W                   E  E  E  E  E  E  E  E   
-----------3---L---------|--3----------------|--3-----3-----3-----------|
------------------1------|--3----------------|--------------0-----1--0--|
--------0--2-------------|-------------------|-----0--------------------|
-----0-------------------|-------------------|--------0--2-----0--2-----|
-------------------------|--3----------------|--3-----------------------|
--3----------------------|-------------------|--------------------------|


    E  E  E  E  E  E  E  E     E  E  E  E  E  E  E  E     E  E  E  E  E  E  E  E   
|---------------------------|--3--3--3--3--3-----------|--------0-----0-----------|
|---0--1--1-----1--------1--|--------------0-----1--0--|-----3-----6-----3-----3--|
|*-----------------------0--|-----------0--------0-----|--------------------5-----|
|*--0-----2--3-----2--3-----|--------2--------2--------|-----0--------------------|
|------0--------------------|-----2--------------------|--------------------------|
|---------------------------|--0-----------------------|--4--------------4--------|


  E  E  E  E  E  E  E  E     E  E  E  E  E  E  E  E     E  E  E  E  E  E  E  E   
--3-----3-----3-----------|--------------------------|--------------------------|
--------------0-----1--0--|--0--1--1-----1--------1--|--1-----1-----1-----1--0--|
-----0--------------------|-----------------------0--|-----0-----0-----0--0-----|
--------0--2-----0--2-----|--0-----2--3-----2--3-----|--------2--------2--------|
--3-----------------------|-----0--------------------|--------------------------|
--------------------------|--------------------------|--0-----------------------|

                            1._______________          2.___________________
  E  E  E  E  E  E  E  E     E  E  E  E  E  E  E  E       E  E  E  E  E  E  E  E   
-----0--1--0--------------|--3--3--3--3--3------------||--------------------------|
--3--------1-----3--1--3--|--------------0-----1--0---||--------------0-----1--0--|
--------1-----1-----------|-----0--------------------*||-----0--------------------|
--------------------------|--------0--2-----0--2-----*||--------0--2-----0--2-----|
--------------------------|--3------------------------||--3-----------------------|
--4-----------------------|---------------------------||--------------------------|


  E  E  E  E  E  E  E  E      E  E  E  E  E  E  E  E      E  E  E  E  E  E  E  E   
--------------------5--3--|---L-----------------3--7--|---L--------8--------------|
--0--1--------1-----------|---------------0--------0--|------------------------3--|
-----------------------5--|------------0--------0-----|------------5--7-----5-----|
--0-----2--3-----2--3-----|---------2--------2--------|---------6--------6--------|
-----0--------------------|------2--------------------|------5--------------------|
--------------------------|---0-----------------------|---4-----------------------|


                                        Da Segno  Tempo:82                 Tempo:66
  E  E  E  E  E  Q.        E  E  E  E  H           S S S S H        Q       S S S S H        Q      
------------------------|-----------------------|------------------------|------------------------||
-----------------0------|-----------------------|----3---1-3-------------|--1-------0-------------||
-----0------------------|-----0-----------------|--1---1-----------------|----0-----0-------------||
--------0--2--L---------|--------0--2--L--------|------------------------|------0-2---------------||
--3---------------------|--3--------------------|------------------------|------------------------||
------------------------|-----------------------|------------------------|------------------------||

Legend
---------------
H - half
Q - quarter
E - 8th
S - 16th
. - note dotted
L - tied note
^ - brush up
Login or Register to remove this ad.

4 comments on Aozora Loop

sweet

5

awesome job. wish it was easier cuz i suck, but still awesome

easier way !

I thank you. As I m also not good to play guitar, I play this tab with easy way, using "hammer on" effect for a lot of notes.
Something like that : Aozora Loop (J.X piano version) from Kimikiss ~Pure Rouge~ [with HAMMER ON with D string]
U can try it, maybe its more confortable for u by this way..

btw : the ost is http://www.youtube.com/watch?v=Frv5Ha1-2E8 ^^

After practing for over a

After practing for over a year I can finally play this song at a slow speed! Great tab. I cant wait to get my speed better and play it 100%.

Congratz !!

As you I can play it easier atm, except bar n°39 which was tricky, then... no more now since I replaced it by:

             VIII
H         
---L---------8--10-----8--10--|
--------------------8---------|
------------------------------|
---------6--10----------------|
------5-----------------------|
---4--------------------------|