Ads

Pure (Kimi ni Todoke) Guitar Tab

Submitted: Jul 11, 2017 by Ttegdap

0
Download | Listen
Game: Kimi ni Todoke
Composer(s): Chara, Yukari Katsuki, Hideharu Mori
Style: 2 or more instruments, Transcription

AutoScroll: Slow | Medium | Fast
                                     Pure

Guitar 1

     E  E  E  E  E  E     E  E  E  E  E  E     E  E  E  E  E  E   
E||--------------------|--3-----------------|--------------------|
B||-----------0--------|-----------0--------|-----------0--------|
G||--------2-----2-----|--------2-----2-----|--------2-----2-----|
D||-----0-----------0--|-----0-----------0--|-----0-----------0--|
A||--------------------|--------------------|--------------------|
E||--3-----------------|--------------------|--3-----------------|


  ^                                                                            
  H.              E  E  E  E  E  E     E  E  E  E  E  E     E  E  E  E  E  E   
--3------------|--------------------|--------------------|-----------0--------|
--0------------|-----------0--------|--------------3-----|--------------0-----|
--2------------|--------0-----0-----|--------2-----------|--------0--------0--|
--0------------|-----0-----------0--|-----0-----0-----0--|-----2--------------|
---------------|--------------------|--------------------|--------------------|
--3------------|--3-----------------|--2-----------------|--0-----------------|


                      ^                                      
  E  E  E  E  Q       E  E  E  E  E  E       E  E  H         
--------------0----|--0-----------------|-------------------|
--------0----------|--1--------1--------|-------------------|
-----------0-------|--0-----0-----0-----|----------0--------|
-----2-------------|--2--2-----------2--|-------4-----------|
-------------------|--3-----------------|--3s5--------------|
--0----------------|--------------------|-------------------|


                       ^                                     
  E  E  E  E  E  E     E  E  Q    Q       E  E  E  E  E  E   
--------------------|--2-----0---------|--------------------|
-----------0--------|--3----------3----|-----------0--------|
--------0-----0-----|--2--2------------|--------0-----0-----|
-----0-----------0--|--0---------------|-----0-----------0--|
--------------------|------------------|--------------------|
--3-----------------|------------------|--3-----------------|


  E  E  E  E  E  E     E  S  S  E  E  E  E     E  E  E  E  Q     
--------------------|-----------------0-----|--------------0----|
--------------3-----|--------------0-----0--|--------1----------|
--------2--------2--|-----------------------|-----------0-------|
-----0-----0--------|-----2S-4S-2-----------|-----2-------------|
--------------------|-----------------------|--3----------------|
--2-----------------|--0--------------------|-------------------|


  E  E  E  E  E  E     E  E  E  E  E  E     E  E    E  E  Q     
--------------------|--------------------|--0------------------|
-----------0--------|--------------0-----|--0------------------|
--------0-----0-----|--------0--------0--|--0-------------0----|
-----0-----------0--|-----2-----2--------|--2--2-------4-------|
--------------------|--------------------|--3-----3s5----------|
--3-----------------|--0-----------------|---------------------|


                       ^                                       
  E  E  E  E  E  E     E  E  E  E  E  E     E  E  E  E  E  E   
--------------3-----|--0-----------------|--0-----------------|
-----------0-----0--|--0--------0--------|-----------0--------|
--------0-----------|--0-----0-----0-----|--------0-----0-----|
-----0--------------|--2--2-----------2--|-----2-----------2--|
--------------------|--3-----------------|--------------------|
--3-----------------|--------------------|--------------------|


                                            ^                  
  E  E  E  E  E  E     E  E  E  E  E  E     E  E  E  E  E  E   
--------------2-----|--------------0-----|--0-----------------|
--------3--------3--|--------3--------3--|--0--------0--------|
--------4-----------|-----0-----0--------|--0-----0-----0-----|
-----4-----4--------|--------------------|--2--2-----------2--|
--2-----------------|--------------------|--3-----------------|
--------------------|--0-----------------|--------------------|


                                            ^                  
  E  E  E  E  E  E     E  E  E  E  E  E     E  E  E  E  E  E   
--0-----------------|--------------2-----|--0-----------0-----|
-----------0--------|--------3--------3--|--3--------0-----3--|
--------0-----0-----|--------4-----------|--0-----0-----------|
-----2-----------2--|-----4-----4--------|--2--2--------------|
--------------------|--2-----------------|--------------------|
--------------------|--------------------|--------------------|


  ^                                                     ^      
  E  E  E  E  E  E     E  E  E  E  E  E     E  E  E  E  E  E   
--0-----------------|--------------2-----|--------------2-----|
--0--------0--------|--------1--------1--|--------3-----3--3--|
--0-----0-----0-----|-----2-----2--------|--------4-----4-----|
--2--2-----------2--|--0-----------------|-----4-----4--------|
--3-----------------|--------------------|--2-----------------|
--------------------|--------------------|--------------------|


  ^                    ^                   ^                 
  E  E  E  E  E  E     E  E  E  E  Q       E  E  E  E  Q     
--0-----------0-----|--0----------------|--3----------------|
--3--------0-----3--|--1--------1-------|--3-----3----------|
--0-----1-----------|--0-----0-----0----|--2--2-----2-------|
--2--2--------------|--2--2-------------|--0----------------|
--------------------|--3----------------|-------------------|
--------------------|-------------------|-------------------|


  E  E  E  E  E  E     E  E  E  E  E  E     E  E  E  E  E  E   
--------------------|--3-----------------|--------------------|
-----------0--------|-----------0--------|-----------0--------|
--------2-----2-----|--------2-----2-----|--------2-----2-----|
-----0-----------0--|-----0-----------0--|-----0-----------0--|
--------------------|--------------------|--------------------|
--3-----------------|--------------------|--3-----------------|


                      ^              
  E  E  E  E  Q       H.             
--3----------------|--3------------||
-----------0-------|--0------------||
--------2-----2----|--2------------||
-----0-------------|--0------------||
-------------------|---------------||
-------------------|--3------------||




Guitar 2

     H.              H.              H.              H        E  E   
E||---------------|---------------|---------------|-----------------|
B||---------------|---------------|---------------|-----------------|
G||---------------|---------------|---------------|-----------------|
D||---------------|---------------|---------------|-----------------|
A||---------------|---------------|---------------|--------------5--|
E||---------------|---------------|---------------|-----------------|


    H        E  E     Q    Q.     E       Q.     E    E  E   
-------------------|-----------------|----------------------|
-------------------|-----------------|-------------------5--|
-------------------|-------7---------|-----------2--2s4-----|
--7s9-----------5--|--7-----------4--|--4h5-----------------|
-------------------|-----------------|----------------------|
-------------------|-----------------|----------------------|


    Q    Q    Q       H          Q         Q    Q    Q     
-------------------|------------------|-------------------|
-------------------|------------------|-------------------|
--2s4----2---------|-----------7s9----|--7h9----7---------|
--------------5----|--5---------------|--------------7----|
-------------------|------------------|-------------------|
-------------------|------------------|-------------------|


    H        E  S  S    H        E  E     H        E  E       Q    Q.     E   
---------------------|-----------------|-----------------|-------------------|
---------------------|-----------------|-----------------|-------------------|
-------------5--5h-7-|-----------------|--4--------------|---------7---------|
--7s9----------------|--7--------------|--------------5--|--5s7-----------4--|
---------------------|--------------5--|-----------------|-------------------|
---------------------|-----------------|-----------------|-------------------|


    Q.     E    E  E       H          E  E     Q    Q.     E   
----------------------|---------------------|-----------------|
-------------------5--|--5s8--------5s7--5--|-----------------|
-----------2--2s4-----|---------------------|--7----5----2s4--|
--4s5-----------------|---------------------|-----------------|
----------------------|---------------------|-----------------|
----------------------|---------------------|-----------------|


    Q    Q    Q       E  E  Q    E  E       H.                Q.     E  E  E   
-------------------|-------------------|-----------------|--------------------|
-------------------|-------------------|-----------------|--------------------|
--4h5----4---------|--4----------------|-----------------|--2s4------2-----2--|
--------------5----|-----7--5----4--5--|--4h5------------|--------------2-----|
-------------------|-------------------|-----------------|--------------------|
-------------------|-------------------|-----------------|--------------------|


    Q    Q.     E     Q.     E  E  E     E  E  E  E   Q     
-------------------|------------------|--------------------|
-------------------|------------------|--------------------|
--2h4----2---------|--2---------------|--2-----------------|
----------------2--|---------5--4--5--|-----5--4--5S--7----|
-------------------|------------------|--------------------|
-------------------|------------------|--------------------|


    Q.     E  E  E     E  E  Q.     S  S    Q.     E  E  E   
--------------------|--------------------|------------------|
--------------------|--------3------1p-0-|------------------|
--2s4------2-----2--|--4--2--------------|--2---------------|
--------------2-----|--------------------|---------5--4--5--|
--------------------|--------------------|------------------|
--------------------|--------------------|------------------|


  E   E  E  E   E  E       H.                Q    Q.     E     H.            
----------------------|-----------------|-------------------|---------------|
-------------------3--|--3s8------------|--7h8----7------5--|---------------|
--2S--4-----2S--4-----|-----------------|-------------------|--7------------|
---------5------------|-----------------|-------------------|---------------|
----------------------|-----------------|-------------------|---------------|
----------------------|-----------------|-------------------|---------------|


  Q      E  E   E  E        H        Q         H        E  E   
----------------------|-------------------|-------------------|
----------------------|-------------------|-------------------|
-------7s9--7---------|-------------------|-------------------|
---------------10--9--|--9h10--------5----|--4h5--------4--5--|
----------------------|-------------------|-------------------|
----------------------|-------------------|-------------------|


    H.              H.              H.              H.            
-----------------|---------------|---------------|---------------|
-----------------|---------------|---------------|---------------|
-----------------|---------------|---------------|---------------|
--4h5------------|---------------|---------------|---------------|
-----------------|---------------|---------------|---------------|
-----------------|---------------|---------------|---------------|


  H.             
---------------||
---------------||
---------------||
---------------||
---------------||
---------------||
Login or Register to remove this ad.