Pearl White Story (Kimi ni Todoke) Guitar Tab

Submitted: Jan 16, 2013 by diralark

5
Average: 5 (6 votes)
Download | Listen
Game: Kimi ni Todoke
Composer(s): Chara, Yukari Katsuki, Hideharu Mori
Style: Arrangement, Fingerstyle

AutoScroll: Slow | Medium | Fast
                      Pearl White Story - Kimi ni Todoke (anime)

      Music by S.E.N.S Project >>  piano arr. by Sperion >> guitar arr. by Diralark


Guitar, let ring, tempo 80 at beginning

 T:84  (Intro)          >                   >                            ^               
     Q       Q    E  E  E.  S    Q    E  E  E.  S    Q    E  E  E  E     Q    Q    Q     
E||-------|-------------------|-------------------|-------------------|-----------------|
B||-------|-------------------|-------------------|-------------------|-----------------|
G||-------|-------------2---0-|-------------2---0-|-------------------|-----------------|
D||-------|--2----------------|--0----------------|-------------------|--0----2---------|
A||-------|--3-------3--------|--2-------2--------|--3-------3--2--3--|------------2----|
E||--3----|-------3-----------|-------3-----------|--5----5-----------|--3--------------|
           [3/4]
                                                                                            II(2)    
                       ^                                     ^     ^                        ^        
  E  E  E  E  E  E     Q    H           E  E  E  E  E  E     E  E  Q.     E     E  E  E  E  E.    S  
--------------------|----------------|--------------------|------------------|----------------------|
--------------------|----------------|--------------------|------------------|----------------------|
--------------------|----------------|--------------------|--0---------------|--------------2-----0-|
-----------------0--|----------------|-----0--2--3--2-----|-----0------------|--2--2--------2-------|
--0-----3--2--3-----|--3-------------|--3-----------0--3--|--3-----2---------|--3--------3----------|
--1--1--------------|--3----3--------|--1-----3-----1-----|--3-----3------3--|--------3-------------|

                                                                                               
              ^                                         ^                                       rall....         
  E  E  E  E  E.  S    E  E  E  E  E  E     E  E  E  E  Q       E  E  E  E  E  E     E  E  E  E  E  E   
--------------------|--------------------|-------------------|--------------------|--------------------|
--------------------|--------------------|--1-----0----------|--------------------|--------------------|
--------------2---0-|--------------------|--------------0----|--2-----------------|--0-----------------|
--0--0--------0-----|--------------0--2--|--2--2--------2----|-----------------0--|--------------0--2--|
--2--------2--------|--3-----3--3--------|-----------3-------|-----3-----2--3-----|--------3--3--------|
--------3-----------|-----5-----5--------|--3-----3----------|--1-----1-----------|--0--3--------------|


................ T:81                 T:89 (Versus)       III(2)    -]                 
                       ^                              ^                         ^      
  E  E  E  E  E  E     H        Q         E  E  E  E  E.  S         E  E  E  E  E.  S  
--------------------|----------------||---0-----------5---3------|--------------5---3-|
--------------------|----------------||------------1-------------|--3--------0--------|
-----0--------------|-----------0----||*--------------0----------|--------------0-----|
--3-----2--3--0--2--|--2-------------||*--------0--2-------------|-----------0--------|
--0-----------------|--3-------------||---3----------------------|--2-----2-----------|
--------3-----4-----|----------------||------3-------------------|-----3--------------|

                                                                                    rall..............                  
                                   ^                                                V                   
  E  E  E  E  E  E     E  E  E  E  Q       E  E  E  E  E  E     E  E  E  E  Q       E  E  E  E  E  E   
--------------------|--------0----------|--------------------|-------------------|--------------------|
--1--------1--0--1--|--3-----------0----|--------------0--1--|-------------------|--------5--6--5-----|
--------------------|--------------0----|--2--------2--------|--0----------------|--5--7-----------5--|
-----2--------------|-----2--------2----|--3-----------------|--------2----------|--------5-----------|
--0-----0--3--------|-----------3-------|--3--3--------0-----|-----3--------3----|--5-----------------|
--------------------|--3-----3----------|--1-----1-----------|--0--------3-------|-----5--------------|


....... T:86        T:89             III(2)    -]                                      
  ^     ^                        ^                         ^        ^                   
  E  E  Q.     E     E  E  E  E  E.  S         E  E  E  E  E.  S    E  E  E  E  E  E   
--3---------------|--0-----------5---3------|--------------5---3-|-----------------0--|
--------0---------|-----------1-------------|--3--------0--------|--1--------1--3-----|
--0-----0------0--|--0-----------0----------|--0-----------0-----|--------------------|
-----0------------|--------0--2-------------|-----------0--------|--2--2--------------|
------------------|--3----------------------|--2-----2-----------|--0-----0--3--------|
--3---------------|-----3-------------------|-----3--------------|--------------------|


                                               III                rall.....................t:84  acc......                                       
  ^     ^              ^                    ^            ^                                               
  E  E  E  E  E.  S    E  E  E  E  E  E     E  E   E  E  E.  S    E  E  E  E  E  E     E  E  E  E  Q     
--8-----7-----3---0-|--5--------5--3--1--|--3---------3--1---0-|-----------0--1--3--|--1-----------7----|
--------------------|--------------------|--5------------2-----|--3--2--3-----------|--0-----------6----|
--------------------|--------------------|--5------------2-----|--------------------|-----------0-------|
--------------------|--------------------|---------------------|--0-----------0-----|-----0-------------|
-----3-----3--------|-----3--------0-----|-----3---------0-----|--------0-----------|--------2----------|
--3-----3-----------|--1-----1-----------|--0------3-----------|--------------------|--3----------------|


.............................T:87        F(I) (Bridge)
  ^                         ^                                           ^            
  E  E  E  E  E  E     Q    Q    Q         E    E  E  E  E  E     E  E  E  E  E  E   
--8-----------------|--8----0-----------|----------------------|--------5-----3-----|
-----------------1--|--8---------3------|--1----------0--1--3--|--3-----0-----------|
--------------0-----|-------0----0------|--2-------------------|--0-----------------|
--------0--2--------|------------2------|--3-------------------|-----0-----------0--|
--3-----------------|--7----7----1------|-------3--------3-----|-----------0--------|
-----3--------------|-------------------|--1-------1-----------|--1-----3-----------|

                                                        V        ^     ^     ^                           
  E  E  E  E  E  E     E  E  E  E  E  E     E  E  E  E  E  E     E  E  E  E  E  E     E  E  E  E  E  E   
--------------------|--------------------|--------------5-----|--5-----3-----------|--0-----------------|
--3--------------0--|--1-----3--1--0-----|--------------6-----|--0-----0-----3-----|--0-----------------|
--0--------0--2-----|--2-----2-----0--0--|--2--------0-----5--|--------------0--0--|--0--------------0--|
--------2--2--------|--2--2--------------|--3-----------------|-----0--------0-----|-----------0--2-----|
-----2--------2-----|--0--------0--------|-----3--------0-----|-----------2--------|--3-----3-----------|
--0-----------------|--------------3-----|--1-----1-----------|--1-----3-----------|-----3--------------|


  III    C7             F(I)                                        III(3) + II                 
  ^      ^                                                                                      
  E   E  E  E  E  E     E    E  E  E  E  E     E  E  E  E  E  E     E           E  E  E  E  E   
---------------------|----------------------|--------5-----7-----|--3--------------------0-----|
--6------5-----3-----|--1-------------1--3--|--3-----0-----------|--3--------------------0-----|
--3------3-----3-----|--2----------4--------|--0-----------7-----|--4--------------------0-----|
------------5--5-----|--3-------------------|-----0-----------0--|-----------------2--------2--|
--3------3-----3-----|-------3--------------|-----------0--------|--------------2--------2-----|
------3-----------3--|--1-------1-----------|--1-----3-----------|--0-----------------3--------|


  V(3)                            F(I)          -]                                      
                         ^                                           ^                  
  E    E  E  E  E  E     E  E  E  E    E  E     E  E  E  E  E  E     E  E  E  E  E  E   
--5-------3-----1--0--|--1-------------------|--------------------|--------------------|
--5-------2-----2-----|--1----------------1--|--1-----------0--1--|--1--------------1--|
--6----------2--------|--2-------------2-----|--2-----------0-----|--0-----------0-----|
----------------2-----|--0-----0-------3-----|--3--0--------------|--2--------2--------|
--0-------0-----------|-----0----------3-----|-----------0--2-----|--3-----3-----------|
-------0--------------|-----------1----------|--3-----3-----------|-----3--------------|


1.______________       (up)                                                           

  E  E  E  E  E  E     E  E  E  E  E  E     E  E  E  E  E  E     E  E  E  E  E  E   
--------------------|--------------------|--------------------|--------------------|
--------0-----------|-----------------1--|--------0-----------|-----------------1--|
--2-----0-----2-----|--0-----------0-----|--2-----0-----2-----|--0-----------0-----|
--3-----------3-----|--2--------2--------|--3-----------3-----|--2--------2--------|
--3--0-----3-----3--|--3-----3-----------|--3--0-----3-----3--|--3-----3-----------|
--------------------|-----3--------------|--------------------|-----3--------------|


                       acc......T:89 rall.......T:78                   2.______________
                                                                        C7/G ^              
  E  E  E  E  E  E     E  E  E  E  E  E  E  E     H        Q    Q            H.            
--------------------|--------------------------|----------------------||-----3--------|
--------0-----------|--------------------------|----------------------||-----5--------|
--2-----0-----2-----|--0--0--0--0--0--0--0--0--|--0-------------0----*||-----3--------|
--3-----------3-----|--0--0--0--0--0--0--0--0--|--0------------------*||-----5--------|
--3--0-----3-----3--|--3--3--3--3--3--3--2--2--|--2-------------------||--------------|
--------------------|--3--3--3--3--3--3--3--3--|--3-------------------||-----3--------|
                     [4/4]                                              [3/4]

T:84  (Outro)                                                                   rall....
                                                                    ^                  
  Q    E     E  E  S S    E  E  E  E  E  E     E  E  E  E  E  E     E  E  E  E  E  E   
-------5-----3--1--0---|--1-----------------|--------------------|--------------------|
-----------------------|--1--------------1--|--1-----------0--1--|--1-----------1-----|
---------------------2-|--------------2-----|--2-----------------|--0-----------0-----|
-----------------------|--0--------0--3-----|-----0--------------|-----------0--2-----|
-----------------------|--------0-----------|-----------0--2-----|--3-----3-----------|
-----------------------|-----1--------------|--3-----3-----------|-----3-----------3--|


                        C(VIII)                         
                        ^                               
  E  E  E  E  E  E      H.               H.             
--------------------|---8------------|---L------------||
--------------1--3--|---8------------|----------------||
-----------0--------|---9------------|----------------||
-----0--2-----------|--10------------|----------------||
--3-----------------|--10------------|----------------||
--------------L-----|---8------------|---L------------||

Legend
---------------
H - half
Q - quarter
E - 8th
S - 16th
. - note dotted
L - tied note
> - accentuded note
^ - brush up

Note
-------------
 Use a capo can help to play this chord [3 3 x x x 8] at bars N°29 & 34  

Links
---------
OST : http://www.youtube.com/watch?v=D0J73XAcc7U
Piano Score : http://sperion.web.fc2.com/main.html
Nice Piano Perf : http://www.youtube.com/watch?v=IY1gg41qRQM
Login or Register to remove this ad.

5 comments on Pearl White Story

Oh I forgot to link the right

Oh I forgot to link the right OST :
http://www.youtube.com/watch?v=ZbllmBcJFbk
I like play the tab with it ^^

First!

First!

Plenty of tabs go months

Plenty of tabs go months without a comment, some never even getting one. Being first isn't much of an accomplishment, and you can't even claim that haha. The tabber beat ya to it.

Anyways, great tab as usual.

Thanks Sir Choogly ! 1rst...

Thanks Sir Choogly !

1rst... lol ^^

Well when a tabber doesn't benefit a expected comment ,I could invite him to watch this video : http://www.washingtonpost.com/wp-dyn/content/article/2007/04/04/AR200704...

Even the best musical talent can be ignored by everybody... O_O

How comforting C:

Ah yes, I remember that

Ah yes, I remember that experiment. Kind of sad, but at the same time people have places to go and can't be late. Still, it makes you appreciate the feedback you get that much more.