Ads

Kimi ni Todoke (Kimi ni Todoke) Guitar Tab

Submitted: Apr 26, 2012 by diralark

5
Average: 5 (5 votes)
Download | Listen
Game: Kimi ni Todoke
Composer(s): Chara, Yukari Katsuki, Hideharu Mori
Style: Arrangement, Fingerstyle

This song is also called Opening Theme

AutoScroll: Slow | Medium | Fast
           Kimi ni Todoke [OP Piano Insert Song],   from Kimi ni Todoke (season 1)

 Music by S.E.N.S. >> piano arr. by Ionized >> guitar arr. by Diralark

Guitar, tempo 80, let ring
                   
                             III                                       -]                             
                                       ^              ^                   ^                           
     H        Q    Q         E   E  E  H        E     E  E  E  Q    E  E  E     E  E  E  H        E   
E||-----------0----2----||---3---------5--------L--|--3--------3----5--------|-----------------------|
B||---------------------||---5---------5--------L--|--5--------5-------3--5--|-----------0--------L--|
G||---------------------||*------4-----------------|-----4----------------0--|-----------------------|
D||---------------------||*---------5--------------|--------5----------------|-----4-----------------|
A||---------------------||---3---------------------|--3----------------------|--------5--------------|
E||---------------------||-------------------------|-------------------------|--3--------------------|


                           III                            -]                  III                     
                                     ^              ^        ^                                        
  E  E  E  E  Q    Q       E   E  E  H        E     E  E  E  Q    E  E  E     E   E  E  Q.     E  E   
--------------0----2----|--3---------5--------L--|--3--------0----5--8--7--|------3------------------|
-----------0--L---------|--5---------5--------L--|--5--------8-------------|------3-----3------5--3--|
------------------------|------4-----------------|-----4-------------------|------4-----4---------4--|
-----4------------------|---------5--------------|--------5----------------|------4------------------|
--------5---------------|--3---------------------|--3----------------------|---------5---------------|
--3---------------------|------------------------|-------------------------|--3----------------------|


                                 ^                  ^                        ^                   ^   
  E  E  E  E  Q    Q       E  E  E  E  E  Q.        E  E  E  E  E  Q.        E  E  E  E  Q    E  E   
------------------------|------------------------|------------------------|-------------------------|
-----------0-------0----|--1--0--1--0--1--3------|--1--0--1--0--1--3------|--1--0--0----------1--0--|
--------------2---------|--------2---------------|--------2---------------|--------2--2--0-------0--|
-----4------------------|--0---------------------|--3---------------------|-------------------------|
--------5---------------|------------------------|------------------------|--3----------------------|
--3---------------------|------------------------|------------------------|-------------------------|


                        V                                                                          
                        ^                          ^                                ^              
  E  H.           E     H        E  E  E  E     E  E  E  E  E  E  E  E     E  E  E  Q    E  E  E   
---------------------|--5--------------------|--0-----------------0--0--|-----2-------------------|
--L------------------|-----------------1--3--|-----3--1--0--------------|-----------3----0--0--1--|
--L--2------------L--|--7-----------0--------|-----0--------2-----------|-----------2-------------|
-----0------------L--|--7--------------------|--------------------------|--0-----4----------------|
---------------------|--5--------------------|--3--------------3--------|-------------------------|
---------------------|-----------------------|--------------------------|-------------------------|


  II                -]                                                         
                             ^                         ^              ^        
  E  E  E  E  E  E  E  E     E  E  E  Q    E  E  E     E  E  E  E  E  Q    E   
--------------------------|-----------0-------------|-------------------------|
--3-----3-----3--------0--|--------0-------0--------|--------------0--1-------|
-----4-----4--4--4--2-----|--2--0--0----------0-----|-----------0-----2----2--|
-----4--------------------|--2-------------------2--|--2-----4----------------|
--2-----------------------|-------------------------|--0--3-------------------|
--------------------------|-------------------------|-------------------------|


                             ^                                                   
  E  E  E  E  E  E  E  E     E  E  E  E  E  E  E  E     E  E  E  E  E  E  E  E   
--------------------------|-----------0--------------|--------------------------|
-----------0--1-----0-----|--------0-----0--------0--|-----------1--------1--3--|
--------2-----------------|-----0-----------0--------|--------2--------0-----0--|
-----1-----------1--------|--7-----------------7-----|--0--3--------------------|
--2--------------------6--|--7-----------------------|--------------------------|
--------------------------|--------------------------|--------------3-----------|


                                                       II                                               
                                      ^                            ^                 ^                  
  E  E  E  E  E  E  E  E     E  E  E  Q    E  E  E     E  E  E  E  E  E  E  E     E  E  H        E  E   
--0-----------------0--0--|-----2----------------0--|--2-----2-----5--3--2--2--|-----3--0--------------|
-----3--1--0--------------|-----------3----3--3-----|-----3-----3--4-----------|-----0--------------3--|
--------0-----2-----------|-----------2-------------|--------4-----------------|-----------------------|
--------------------------|--0-----4----------------|--------------------------|--2--------------------|
--3--------------3--------|-------------------------|--2-----------------------|-----------------------|
--------------------------|-------------------------|--------------------------|-----------------------|


                                                                         1.____________
           ^              ^                                ^                                      
  E  E  E  Q    Q.        H        E  E  E  E     E  E  E  H        E     E  E  Q    Q    Q       
-----------3-----------|-----------------------|-----------------------|-------------0----2-----||
--3--1-----3----0------|-----------------------|-----------3--------L--|------------------------||
--------2-------0------|--2--------------2--0--|--------0--4--------L--|--------0--------------*||
-----2-----------------|--0-----------4--------|-----0-----5--------L--|-----0-----------------*||
--0--------------------|-----------------------|-----------------------|------------------------||
-----------------------|-----------------------|--3--------------------|--3---------------------||


2.______________
           ^                       ^                   
  E  E  E  H        E     E  E  E  H        E          
-----------------------|-----------------------|-----||
-----------3--------L--|-----------3--------L--|-----||
--------0--4--------L--|--------0--4--------L--|-----||
-----0-----5--------L--|-----0-----5--------L--|-----||
-----------------------|-----------------------|-----||
--3--------------------|--3--------------------|-----||

Legend
---------------
H - half
Q - quarter
E - 8th
. - note dotted
L - tied note
^ - brush up

Note : This is the piano insert song of the opening theme : http://www.youtube.com/watch?v=aFxdGzos7v4 
         , used as background music during the season 1  (for ex. in ep. 15  near 04:20)
Login or Register to remove this ad.

5 comments on Kimi ni Todoke

I likey

I likey

Awesome

5

Nice and easy. Took one day for me. but there are some tricky parts.

thanks guys c:

thanks guys c:

too much extra sound!==

to much extra sound!==

u can find an alt version

u can find an alt version here : https://googledrive.com/host/0B5Ciibr41MNmYXRSMlFyOU45eGs/
from mackytube3216 : https://www.youtube.com/watch?v=cS0p-02yVuA