Ads

Substitute Jiji (Kiki's Delivery Service) Guitar Tab

Submitted: Apr 22, 2013 by JordanVS

5
Average: 5 (6 votes)
Download | Listen
Game: Kiki's Delivery Service
Composer(s): Joe Hisaishi
Style: Arrangement, Fingerstyle

This song is also called Migawari Jiji

AutoScroll: Slow | Medium | Fast
Substitute Jiji                                       
Migawari Jiji
Kiki's Delivery Service
Joe Hisaishi
JordanVS

-Real similar to "Lily to Jiji/Ririi to Jiji" from the Image 
Album.
*Drop D Tuning



							    *Segno
     |--3--|                       |--3--|                                            
     E  E  E  E.  S E.  S E.  S    E  E  E  E.  S Q    Q       E.  S Q    Q    E.  S  
E||--5--4--3--2---1-0-----------|---------------------------|------------------------|
B||--2------------------4-3---2-|--1--0---------------------|--------3----2----3-----|
G||-----------------------------|--------3--2---1-0----2----|--2---2---------------2-|
D||-----------------------------|---------------------------|--------4---------4-----|
A||--0--------------------------|----------------------0----|-------------0----------|
D||-----------------------------|---------------------------|--0---------------------|


  E.  S Q    Q    Q       Q    E.  S Q    Q       Q    E.  S Q    Q     
-----------------------|-----------------------|-----------------------|
--------3----2----3----|-----------------------|-----------------------|
------2----------------|--3----3---2-3----0----|--3----3---2-3----0----|
--------4---------4----|-------0----------0----|-------0----------0----|
-------------0---------|-------------1---------|-------------1---------|
--0--------------------|--2--------------------|--2--------------------|


  E.  S Q    Q    E.  S    E.  S Q    Q    Q       Q    E.  S Q    Q     
------------------------|-----------------------|--0----0-----0---------|
--------3----2----3-----|--------3----2----3----|--0--------3------0----|
--2---2---------------2-|------2----------------|--1----------1---------|
--------4---------4-----|--------4---------4----|--2--------------------|
-------------0----------|-------------0---------|-------------2---------|
--0---------------------|--0--------------------|-----------------------|


       |--3--|  |--3--|                                                        
  Q    E  E  E  E  E  E  Q       Q    Q    Q    E.  S    E.  S Q    Q    Q     
------------------------------|-----------------------|-----------------------|
--2---------------------------|-------3----2----3-----|--------3----2----3----|
--0---------------------------|--2------------------2-|------2----------------|
------------------------------|-------4---------4-----|--------4---------4----|
--0----0--1--2--3--2--1--0----|------------0----------|-------------0---------|
------------------------------|--0--------------------|--0--------------------|


  Q    E.  S Q    Q       Q    E.  S Q    Q       Q    Q    Q    E.  S  
-----------------------|-----------------------|-----------------------|
-----------------------|-----------------------|-------3----2----3-----|
--3----3---2-3----0----|--3----3---2-3----0----|--2------------------2-|
-------0----------0----|-------0----------0----|-------4---------4-----|
-------------1---------|-------------1---------|------------0----------|
--2--------------------|--2--------------------|--0--------------------|


  E.  S Q    Q    Q       Q    E.  S E.  S E.  S    Q    Q    Q    E.  S  
-----------------------|--0----0-----0---2-3---4-|--5------------------0-|
--------3----2----3----|--0--------3-------------|-------2---------3-----|
------2----------------|--1----------------------|-------0---------------|
--------4---------4----|--2----------------------|-----------------------|
-------------0---------|-------------------------|--0---------0----------|
--0--------------------|-------------------------|-----------------------|


  E.  S Q    E.  S E.  S    Q    Q    E.  S E.  S    Q    Q    E.  S E.  S  
--2---1-2----2---3-2---0-|----------------0-2---0-|------------------0-----|
--3---2-3----3-----------|-------2----------------|--3----0--------3-----3-|
-------------------------|-------3----------2-----|-------0----------------|
-------------------------|--4---------------------|------------------------|
-------------0-----------|------------4-----------|------------------------|
--0----------------------|------------------------|--5---------5-----------|


  Q    Q    H             E.  Q    E  E.  Q         E.  Q    H        S  
---------------------|-------------2--L---2----|-------------5--------3-|
--2------------------|--------0----0--L---0----|--0g1---2----2----------|
-------2-------------|--2g3---0----0--L---0----|-------------2----------|
---------------------|-------------------------|------------------------|
--0---------0--------|-------------------------|----0-------------------|
---------------------|----2--------------------|------------------------|


  E.  S E.  S E.  S E.  S    Q    Q    Q    E.  S    Q    Q    Q    E.  S  
--2---1-2---1-2---0-----0-|--L--------------------|------------3----2-----|
--0-----0-----0-----3---2-|--L--------------------|-------0-------------1-|
--1-----1-----1---------2-|--L--------------2---3-|--L---------0----------|
--------------------------|-------2---------------|-----------------4-----|
------------------------0-|--L---------0--------1-|--L----2-------------3-|
--------------------------|-----------------------|-----------------------|


									*Da Coda
                                                           |--3--|             
  E.  S E.  Q    Q    S    E.  S E.  S E.  S E.  S    Q    E  E  E  Q    Q     
------------5----5----3-|--2---1-2-----0-----0-----|--------------------------|
--L---1-2--------2------|------------3-----4-----2-|--3----0--1--2--3---------|
------------2-----------|--2---1-2-----0-----0-----|-------0------------------|
------------------------|--------------------------|--4-------------4---------|
--L---3-4--------0------|--0-----------0-----------|-------0------------------|
------------------------|--------------------------|--0-------------0---------|


  E.  S E.  S E.  S E.  S    E.  S E.  S E.  S E.  S    E.  S E.  S E.  S E.  S  
--2---3-4---5-2---3-4---5-|------0-1---2-----0-1---2-|--0---1-2---3-0---1-2---3-|
--3-----------------------|--3-----------3-----------|--------------------------|
--------------------------|--------------------------|--0-----------3-----------|
--------------------------|--4-----------------------|--2-----------------------|
--------------0-----------|--------------0-----------|--------------------------|
--0-----------------------|--0-----------------------|--------------------------|


  E.  S E.  S E.  S E.  S    E.  S E.  S E.  S E.  S    Q    Q    Q    Q     
--0---1-2---3-0---1-2---3-|--2---1-2---1-2---1-2-----|----------------------|
--------------------------|--3---2-3---2-3---2-3---3-|-------3---------3----|
--0-----------3-----------|--------------------------|----------------------|
--2-----------------------|------------------------4-|-------4---------4----|
--------------------------|--------------0-----------|------------0---------|
--------------------------|--0-----------------------|--0-------------------|


                                |--3--|  |--3--|                                
  E.  S Q    Q    E.  S    Q    E  E  E  E  E  E  Q       E.  S Q    Q    Q     
--0-----0---------0-----|------------------------------|-------------0----2----|
--0---3------0--------3-|--2---------------------------|--------3----2----3----|
--1---------------------|--0---------------------------|--2---2----------------|
--2---------------------|------------------------------|--------4---------4----|
------------------------|--0----0--1--2--3--2--1--0----|-------------0---------|
------------------------|------------------------------|--0--------------------|


  E.  S Q    Q    Q       E.  S Q    Q    Q       E.  S E.  S Q    Q     
-------------0----2----|--3---2-3----0----3----|--3---3-2---3-0---------|
--------3----2----3----|--3--------------------|--3---------------------|
--2---2----------------|--3--------------------|--3----------------3----|
--------4---------4----|--2--------------------|--2---------------------|
-------------0---------|-------------1---------|------------------------|
--0--------------------|-----------------------|------------------------|


  E.  S Q    Q    Q       Q    Q    Q    Q       E.  S E.  S E.  Q    S  
-------------0----2----|--5-------------------|--0---0-0-----0---0------|
--------3----2----3----|-------3---------3----|------------3-----0----3-|
--2---2----------------|----------------------|--1---------------1------|
--------4---------4----|-------4---------4----|--2----------------------|
-------------0---------|------------0---------|-------------------------|
--0--------------------|--0-------------------|-------------------------|


       |--3--|                                                                 
  Q    E  E  E  Q    E.  S    E.  S Q    E.  S E.  S    Q    Q    E.  S E.  S  
-------------------------0-|--2---1-2----2---3-2---0-|----------------0-2---0-|
--2------------------3-----|--3---2-3----3-----------|-------2----------------|
--0------------------------|-------------------------|-------3----------3-----|
---------------------------|-------------------------|--4---------------------|
--0----0--2--3--4----------|-------------0-----------|------------4-----------|
---------------------------|--0----------------------|------------------------|


  Q    Q    E.  S E.  S    Q    Q    H             E.  Q    E  E.  Q     
------------------0-----|---------------------|-------------2--L---2----|
--3----0--------3-----3-|--2------------------|--------0----0--L---0----|
-------0----------------|-------2-------------|--2g3---0----0--L---0----|
------------------------|---------------------|-------------------------|
------------------------|--0---------0--------|-------------------------|
--5---------5-----------|---------------------|----2--------------------|


    E.  Q    H        S    E.  S E.  S E.  S E.  S    Q    Q    Q    E.  S  
-------------5--------3-|--2---1-2---1-2---0-----0-|--L--------------------|
--0g1---2----2----------|--0-----0-----0-----3---2-|--L--------------------|
-------------2----------|--1-----1-----1---------2-|--L--------------2---3-|
------------------------|--------------------------|-------2---------------|
----0-------------------|------------------------0-|--L---------0--------1-|
------------------------|--------------------------|-----------------------|


  Q    Q    Q    E.  S    E.  S E.  Q    Q    S    E.  S E.  S E.  S E.  S  
------------3----2-----|------------5----5----3-|--2---1-2-----0-----0-----|
-------0-------------1-|--L---1-2--------2------|------------3-----4-----2-|
--L---------0----------|------------2-----------|--2---1-2-----0-----0-----|
-----------------4-----|------------------------|--------------------------|
--L----2-------------3-|--L---3-4--------0------|--0-----------0-----------|
-----------------------|------------------------|--------------------------|


*D.S. al Coda    	  *Coda
       |--3--|               |--3--|                       |--3--|                   
  Q    E  E  E  Q    Q       E  E  E  E.  S E.  S E.  S    E  E  E  E.  S Q    Q     
--------------------------|--5--4--3--2---1-0-----------|---------------------------|
--3----0--1--2--3---------|--2------------------4-3---2-|--1--0---------------------|
-------0------------------|-----------------------------|--------3--2---1-0----2----|
--4-------------4---------|-----------------------------|---------------------------|
-------0------------------|--0--------------------------|----------------------0----|
--0-------------0---------|-----------------------------|---------------------------|


  E.  S E.  H        S    Q    Q     Q    Q      
-----------------------|-------9----10---------||
-----------------------|-------8-----7---------||
--7--------------------|-------9-----7---------||
------6-7---8----------|-------------0---------||
-----------------------|-------0---------------||
-----------------------|------------------0----||




Duration Legend
---------------
W - whole
H - half
Q - quarter
E - 8th
S - 16th
. - note dotted
|-n-|  - n-tuplets


Tablature Legend
----------------
L - tied note
^ - brush up
v - brush down
Login or Register to remove this ad.