Ads

Pick Up Street (Kiki's Delivery Service) Guitar Tab

Submitted: Jun 08, 2013 by JordanVS

5
Average: 5 (6 votes)
Download | Listen
Game: Kiki's Delivery Service
Composer(s): Joe Hisaishi
Style: Arrangement, Fingerstyle

AutoScroll: Slow | Medium | Fast
Pick Up Street                                       
Nanpa Doori
Kiki's Delivery Service Image Album
Joe Hisaishi
JordanVS

-Similar to "Very Busy Kiki/Ooisogashi no Kiki" from 
the OST 

*Drop D Tuning!

                                                                     ^                  
     E  E  E  E  E  E     E  S S E  Q.        Q.     E  S  S S  S    E.  S E  E  E  E   
E||-----3--2-----0-----|--0----0----0------|--L-------------------|--2---2-2--3--2--0--|
B||-----5--3-----2--3--|--2----2----2------|--L-------------------|--3---3-3--3--3--3--|
G||-----------------4--|--0----0----0------|--L-------------------|--2---2-2--2--2--2--|
D||--0-----------------|--L----------------|--L--------------0h-2-|--0-----------------|
A||--------------------|-------------------|------------0h-4------|--------------------|
D||--------------------|-------------------|----------------------|--------------------|


  ^                    ^                    ^                    ^                  
  E.  S E  E  E  E     E.  S E  E  E  E     E.  S E  E  E  E     E.  S E  E  E  E   
--2---2-2--3--2--0--|--2---2-2--3--2--0--|--2---2-2--3--2--0--|--2---2-2--3--2--0--|
--3---3-3--3--3--3--|--3---3-3--3--3--3--|--3---3-3--3--3--3--|--3---3-3--3--3--3--|
--2---2-2--2--2--2--|--2---2-2--2--2--2--|--2---2-2--2--2--2--|--2---2-2--2--2--2--|
--0-----------------|--0-----------------|--0-----------------|--0-----------------|
--------------------|--------------------|--------------------|--------------------|
--------------------|--------------------|--------------------|--------------------|


*Segno

  E  E  E  E.  S E     E.  S E  E.  S E     E  E  E  E.  S E     E.  S E  Q.      
--------------------|--------------------|--------------------|------------------|
-----------0--------|--------------------|--------0--1---0----|--0---------------|
--------2--0---2-0--|--2---0----0--------|-----0-----------2--|--0---2-0--2------|
--0--4--------------|--0-----4------4-2--|--0--------0--------|-----------0------|
--------------------|--------------------|--------------------|------------------|
--0--------0--------|--0--------0--------|--0--------0--------|--0--------0------|


  E  E  E  Q    E     E.  S E  Q.        Q    E  E  E  E     Q.     Q.      
-------------------|------------------|-------------------|----------------|
-----------3----3--|--3---2-0---------|-------------------|----------------|
--------2--0----0--|-----------2------|--0----0-----------|----------------|
--0--4-------------|--4--------0------|--0-------3--2--0--|--0-------------|
-------------------|------------------|-------------------|--0-------------|
--0--------0-------|--0--------0------|--0-------0--------|--0------5------|


  E  E  E  E.   S E      E.  S E  E.  S E     E  E  E  E.  S  E     E.   S E   Q.      
-----2--5--7---------|------------------0--|--------7--8---7-----|--7-----------------|
--3--------8---10-8--|--10---8-7--8---7----|--0--8-----6-----10--|--8---10-8--10------|
--2--------7---------|---7--------9--------|--0--------7---------|--7----------7------|
-----------0---------|------------0--------|-----------0---------|-------------0------|
---------------------|---------------------|---------------------|--------------------|
--0------------------|---0-----------------|--0------------------|--0-----------------|


  E  E  E   Q     E      E.  S E  Q.        Q    E  E  E  E     E  E  E  E  E  E   
-----2--5--10----10--|--10---9-7--5------|--3----3--1--0-----|--------------------|
--3---------8-----8--|---7---7-7--3------|--3----3--------3--|--3-----------------|
--2------------------|------------4------|--2-------------2--|--2-----------------|
------------0--------|------------0------|----------0--------|--------0-----------|
---------------------|-------------------|-------------------|-----0-----------0--|
--0------------------|---0---------------|--0----------------|--0--------0--5-----|


  E.  S E  E  E  E     E.  S E  E  E  E     E.  S E  E  E  E     E.  S E  E  E  E   
--------------------|--------------------|--------------------|--------------------|
--0---0-0--1--0-----|--0---0-0--1-----1--|--0---0-0--1--0-----|--0---0-0--1--0-----|
-----------------2--|--0--------2-----2--|--0--------------2--|--0--------------2--|
--0-----------------|--------------------|--------------------|--------------------|
--------------------|-----------3-----3--|--------------------|--------------------|
--5-----------------|--5--------3-----3--|--5-----------------|--5--------5--------|


  E.  S E  E  E  E     E.  S E  E  E  E     E.  S E  E  E  E     E.  S E  E  E  E   
--------------------|--------------------|--------------------|-----------5--7--8--|
--0---0-0--1--0-----|--0---0-0--1--0-----|--0---0-0--1--0-----|--0---0-0-----------|
--0--------0-----2--|--0--------2-----2--|--0--------0-----2--|--0-----------------|
--------------------|--------------------|--------------------|--------------------|
--------------------|--------------------|--------------------|--------------------|
--5--------5--------|--5--------3--------|--5--------5--------|--5--------3--------|


   Q.      Q     E      Q.      E   E   E      Q     E   E   E   E   
--10------12--------|----------------------|--------------------10--|
--10------------12--|--13------13--12------|------------12--13------|
--10------12--------|--12--------------12--|--14----14--------------|
---0-------0--------|----------------------|---0---------0----------|
--------------------|----------------------|------------------------|
--------------------|--10------10----------|------------------------|


   H         S S S S    Q    E  Q    E     Q     E   E  E  E      Q    E  Q    E   
---0-----------------|--8----7--7-------|--7------------7--8--|--10----8--7----3--|
---------------------|------------------|-------10--10--------|---8------------3--|
---0--------10-9-8-9-|--7------------9--|---------------------|---0-------0-------|
---------------------|------------------|---------------------|-------------------|
---------------------|--7-------7-------|--8---------8--------|-------------------|
--10-----------------|------------------|---------------------|-------------------|


  E.  S E  E.  S E     E.  S E  E  E  E     S S S S E  E  E  E     S S S S S S S S E  E   
--5--------0---0-0--|--0---0-0-----------|----0-2-3-5-----------|------------------------|
--3---3-3--3---3-3--|--2---2-2-----------|--3-------------------|------3---3---5-3-------|
--2---2-2--2---2-2--|--2---2-2--2--------|----------------------|----2---2---2-----------|
--------------------|--------------2-----|--0----------5--4--2--|--0-----------5---3--2--|
--------------------|-----------------0--|----------------------|------------------------|
--------------------|--------------------|----------------------|------------------------|


  S S S S E  E  E  E     S S S S S S S S E  E     S  S  S S  E  E  E  E   
----0-2-3-5-----------|------------------------|-------10-9-10-----------|
--3-------------------|------3---3---5-3-------|--0-10-------------------|
----------------------|----2---2---2-----------|----------------0--------|
--0----------5--3--2--|--0-----------5---3--2--|--0----------------------|
----------------------|------------------------|-------------------9--7--|
----------------------|------------------------|-------------------------|


  S S S S S S S S E  E     S  S  S S  E  E  E  E     S S S S S S S S E  E   
------------------------|-------10-9-10-----------|------------------------|
------3---3---5-3-------|--0-10-------------------|------3---3---5-3-------|
----2---2---2-----------|----------------0--------|----2---2---2-----------|
--0-----------5---4--2--|--0----------------------|--0-----------5---3--2--|
------------------------|-------------------9--7--|------------------------|
------------------------|-------------------------|------------------------|

Da Coda


  S S S S E  E  S S E     S S S S E  E  S S E     S S S S S S S S S S S S  
----0-2-3-5--5---------|----------5--7--5------|----5---------------------|
--3-------------3-2-3--|------5-7---------8-7--|------8-7-5-7-5---5-------|
-----------------------|----7------------------|----------------7---7-7-5-|
--0--------------------|-----------------------|--------------------------|
-----------------------|-----------------------|--------------------------|
--0----------0---------|--0----------0---------|--0-----------0-----------|


  S S S S S S S S S S S S     Q.     Q.        S S S S S S S S S S S S  
----------------------5-7-|--10-------------|--9-7-5-------------------|
--------5-6-8---5-6-8-----|-----------------|--------8-7-5-------5-7-8-|
--4-5-7-------7-----------|-----------------|--------------7-6-7-------|
--------------------------|----------0------|--------------------------|
--------------------------|-----------------|--------------------------|
--0-----------0-----------|---0-------------|--0-----------0-----------|


                                                                     ^        ^       
  S S  E  S  S E  S  S E     S S S S S S S S S S S  S    H           E  E  E  Q.      
----5h-7------------------|------------------5-7-8-10-|--L--------|------------------|
--8-------5h-6-8-------5--|------------5-6-8----------|-----------|-----------0------|
------------------5h-7----|--7-5-4-5-7----------------|-----------|-----0--2--0------|
--------------------------|---------------------------|-----------|--3--------3------|
--------------------------|---------------------------|-----------|--0---------------|
--0------------0----------|--0-----------0------------|--L--------|--0--------0------|


                                                          *D.S. al Coda         *Coda

  ^        ^         ^        ^                   ^                              
  E  E  E  Q.        E  E  E  Q.        E  S S E  Q.        Q.     E  S S  S  S  
------------------|------------------|-------------------|----------------------|
------------------|------------------|-------------------|----------------------|
--------0--2------|-----------1------|--2----2----0------|--L-------------------|
--2--3-----2------|--0--2--3--0------|-------3----3------|--L-------------------|
--3--------3------|--2--------2------|--3---------3------|--L-----------0h-3p-0-|
------------------|------------------|--3----3----5------|--L---------5---------|


  E  E  E  E.   S E      E.  S E  E.  S E     E  E  E  E.  S  E     E.   S E   Q.      
-----2--5--7---------|------------------0--|--------7--8---7-----|--7-----------------|
--3--------8---10-8--|--10---8-7--8---7----|--0--8-----6-----10--|--8---10-8--10------|
--2--------7---------|---7--------9--------|--0--------7---------|--7----------7------|
-----------0---------|------------0--------|-----------0---------|-------------0------|
---------------------|---------------------|---------------------|--------------------|
--0------------------|---0-----------------|--0------------------|--0-----------------|


  E  E  E   Q     E      E.  S E  Q.        Q    E  E  E  E     E  E  E  E  E  E   
-----2--5--10----10--|--10---9-7--5------|--3----3--1--0-----|--------------------|
--3---------8-----8--|---7---7-7--3------|--3----3--------3--|--3-----------------|
--2------------------|------------4------|--2-------------2--|--2-----------------|
------------0--------|------------0------|----------0--------|--------0-----------|
---------------------|-------------------|-------------------|-----0-----------0--|
--0------------------|---0---------------|--0----------------|--0--------0--5-----|


  S S S S E  E  E  E     S S S S S S S S E  E     S S S S E  E  E  E   
----0-2-3-5-----------|------------------------|----0-2-3-5-----------|
--3-------------------|------3---3---5-3-------|--3-------------------|
----------------------|----2---2---2-----------|----------------------|
--0----------5--4--2--|--0-----------5---3--2--|--0----------5--3--2--|
----------------------|------------------------|----------------------|
----------------------|------------------------|----------------------|


  S S S S S S S S E  E     S  S  S S  E  E  E  E     S S S S S S S S E  E   
------------------------|-------10-9-10-----------|------------------------|
------3---3---5-3-------|--0-10-------------------|------3---3---5-3-------|
----2---2---2-----------|----------------0--------|----2---2---2-----------|
--0-----------5---3--2--|--0----------------------|--0-----------5---4--2--|
------------------------|-------------------9--7--|------------------------|
------------------------|-------------------------|------------------------|


                                                     ^              
  S  S  S S  E  E  E  E     S S S S S S S S E  E     H.             
-------10-9-10-----------|------------------------|--2------------||
--0-10-------------------|------3---3---5-3-------|--3------------||
----------------0--------|----2---2---2-----------|--2------------||
--0----------------------|--0-----------5---3--2--|--0------------||
-------------------9--7--|------------------------|---------------||
-------------------------|------------------------|---------------||




Duration Legend
---------------
W - whole
H - half
Q - quarter
E - 8th
S - 16th
. - note dotted


Tablature Legend
----------------
L - tied note
h - hammer on
p - pull off
^ - brush up
v - brush down
Login or Register to remove this ad.