Ads

Night at the Town (Kiki's Delivery Service) Guitar Tab

Submitted: Apr 15, 2013 by JordanVS

5
Average: 5 (11 votes)
Download | Listen
Game: Kiki's Delivery Service
Composer(s): Joe Hisaishi
Style: Arrangement, Fingerstyle

AutoScroll: Slow | Medium | Fast
Night at the Town                                     
Machi no Yoru
Kiki's Delivery Service
Joe Hisaishi 
JordanVS


-This is from the Image Album and it's similar to 
"Heartbroken KiKi" from the OST!


     H        E  E     Q    Q    Q       Q    Q    Q       Q    Q    Q     
E||-----------------|-----------------|-----------------|-----------------|
B||-----------------|--1--------------|--0--------------|-----------------|
G||-----------------|-----------------|-----------------|--2--------------|
D||-----------3--2--|------------2----|------------1----|------------2----|
A||-----------------|--0----3---------|--0----2---------|--0----3---------|
E||-----------------|-----------------|-----------------|-----------------|


  Q    Q    E  E     Q    Q    Q       Q    Q    Q       Q    Q    Q     
------------------|-----------------|-----------------|-----------------|
------------------|--1--------------|--0--------------|-----------------|
------------------|-----------------|-----------------|--2--------------|
--4---------1--2--|------------2----|------------1----|------------2----|
--0----2----------|--0----3---------|--0----2---------|--0----3---------|
------------------|-----------------|-----------------|-----------------|


  Q    Q    Q       Q    Q    Q         Q    Q    E  E     Q    Q    E  E   
-----------------|-----------------||---0---------------|------------------|
-----------------|-----------------||----------------0--|--1---------0-----|
-----------------|-----------------||*------------2-----|---------------2--|
--4---------1----|--4----1---------||*-------2----------|-------2----------|
--0----2---------|------------2----||---0----3----------|-------3----------|
-----------------|-----------------||-------------------|--4---------------|


  Q    Q    E  E     Q    Q    E  E     Q    Q    E  E     Q    Q.     E   
--0---------------|------------------|--5---------1--3--|--5----7------5--|
---------------0--|--1---------0-----|-------1----------|-------3---------|
------------2-----|---------------2--|-------2----------|-------4---------|
-------2----------|-------2----------|--0---------------|-----------------|
-------3----------|-------3----------|------------------|-----------------|
--3---------------|--2---------------|------------------|--3--------------|


  Q    Q    Q       Q    Q    Q       E  E  E  E  E  E     Q    Q    E  E   
--0--------------|------------0----|--1--0--------------|---------------5--|
-----------------|-----------------|--------3--1--0-----|--0---------------|
------------0----|------------0----|--------2--------2--|------------0-----|
-------2---------|-------2---------|--0-----3-----------|-------0----------|
--3--------------|--4--------------|--------------------|------------------|
-----------------|-----------------|--------------------|--3---------------|


  E  E  E  E  E  E     Q    Q    E  E     Q    Q    Q       Q    Q    E  E   
--3--1--0-----------|------------------|--0--------------|--0---------------|
--------0--3--1--0--|--1---------1--3--|-----------------|------------3--1--|
--------0-----------|-------2----0-----|------------2----|------------------|
--2-----------------|------------------|-----------------|------------------|
--------------------|--0---------------|-------0----3----|-------0----3-----|
--------------------|------------------|--1--------------|--1---------------|


  Q    H           Q    Q    Q       Q    Q    E  E     Q    Q    E  E   
----------------|--0--------------|--0---------------|------------------|
--3-------------|-----------------|---------------0--|--1---------0-----|
-------0--------|-----------------|------------2-----|---------------2--|
-------0--------|-------2----0----|-------2----------|-------2----------|
----------------|-------2----2----|--0----3----------|-------3----------|
--3-------------|--4--------------|------------------|--4---------------|


  Q    Q    E  E     Q    Q    E  E     Q    Q    E  E     Q    Q.     E   
--0---------------|------------------|--5---------1--3--|--5----7------5--|
---------------0--|--1---------0-----|-------1----------|-------3---------|
------------2-----|---------------2--|-------2----------|-------4---------|
-------2----------|-------2----------|--0---------------|-----------------|
-------3----------|-------3----------|------------------|-----------------|
--3---------------|--2---------------|------------------|--3--------------|


  Q    E  E  E  E     E  E  Q    Q       Q    E   E   E   E      Q    Q    Q     
--3----------------|-------------0----|--0---------------12--|--12--------------|
-------------------|------------------|--------------10------|------------------|
-------3--2--0-----|------------------|----------10----------|------------------|
----------------3--|--2--0------------|--0-------------------|-------------7----|
-------------------|--------4---------|-------8-------0------|--------8---------|
--0----------------|------------------|----------------------|---8--------------|


   Q    Q    Q       Q    Q    Q        Q    Q    Q       Q    Q    E  E   
--10----8----7----|--8--------------|-------------8----|--7------------0--|
------------------|-------0----0----|--10--------------|-------0----0-----|
------------------|-----------------|------------------|-------0----0-----|
-------------6----|-------6----6----|---0---------7----|------------------|
--------9----7----|--6--------------|--------8---------|--7---------------|
---7--------------|-----------------|------------------|------------------|


  Q    Q    Q       Q    Q    Q       Q    E  E  E  E     Q    Q    Q     
--5---------8----|--7---------3----|--5----------------|--0--------------|
-----------------|-------3---------|----------0--1--0--|-------1---------|
-------2----5----|-------4---------|-------2-----------|------------2----|
--3--------------|-----------------|--4----------------|-----------------|
-----------------|-----------------|-------------------|-----------------|
-----------------|--3--------------|-------------------|-----------------|


  E  E  E  E  E  E     Q    Q    Q       E  E  E  E  E  E     Q    Q    Q     
--0--0--0--0--0--1--|-----------------|-----------------0--|-----------------|
--------1-----1-----|--3----0----0----|--3--3--3--3--3-----|--1--------------|
--------2-----2-----|-------0----0----|--------4-----4-----|-------2----2----|
--------------------|-----------------|--------5-----5-----|--2--------------|
--------------------|-----------------|--------------------|--0--------------|
--1-----------------|--1--------------|--0-----------------|-----------------|


  E  E  E  E  E  E     Q    Q    Q       Q    Q    Q       Q    Q    S  S S  S  
--------------------|-----------------|-----------------|----------------------|
--1--1--1--1--1--3--|--1----0---------|-----------------|-----------------1h-3-|
--------1-----1-----|------------2----|-------3----3----|-------3----2h-3------|
--1-----------------|--0----3----3----|-------5----5----|-------2--------------|
--------------------|-----------------|--5--------------|--3-------------------|
--------------------|-----------------|-----------------|----------------------|


  E  E  E  E  E  E     Q    Q    Q       E  E  E  E  E  E     Q    Q    E  E   
--0--0--0--0--0--1--|-----------------|-----------------0--|------------------|
--------1-----1-----|--3----0----0----|--3--3--3--3--3-----|--1---------1--3--|
--------2-----2-----|-------0----0----|--------4-----4-----|-------2----2-----|
--------------------|-----------------|--------5-----5-----|--2---------------|
--------------------|-----------------|--------------------|--0---------------|
--1-----------------|--1--------------|--0-----------------|------------------|

			           1.

  ^                 ^                                                 
  Q    Q    Q       Q    Q    Q       H        E  E     H.            
--0--------------|-----------------|-----------------|---------------|
--1----3----1----|--0--------------|-----------------|---------------|
--2--------------|--0----2----0----|--2--------------|--L------------|
--3--------------|--2--------------|--0--------------|--L------------|
-----------------|-----------------|--0--------4--2--|--4------------|
-----------------|-----------------|-----------------|---------------|


  E  E  E  E  E  E     Q    Q    Q       E  E  E  E  E  E     Q    Q    Q       
--0--1--0--1--0--1--|-----------------|--0--1--0--1--0--1--|------------------||
--1-----------------|--3--------------|--1-----------------|--3---------------||
--2-----------------|-----------------|--2-----------------|-----------------*||
--------------------|------------0----|--------------------|------------0----*||
--0-----------------|-------1---------|--0-----------------|-------1----------||
--------------------|--3--------------|--------------------|--3---------------||


2.
                                    ^                  ^              
  H        E  E     H.              Q    Q    Q        H.             
-----------------|---------------|--0--------------|--12------------||
-----------------|---------------|--1--------------|--13------------||
--2--------------|--L------------|--2--------------|--14------------||
--0--------------|--L------------|--0---------7----|--15------------||
--0--------4--2--|--4------------|-------8---------|----------------||
-----------------|---------------|-----------------|----------------||




Duration Legend
---------------
W - whole
H - half
Q - quarter
E - 8th
S - 16th
. - note dotted


Tablature Legend
----------------
L - tied note
h - hammer on
p - pull off
^ - brush up
v - brush down
Login or Register to remove this ad.

1 comment on Night at the Town

Gorgeous. One of your best

5

Gorgeous. One of your best tabs yet.