A Mysterious Painting (Kiki's Delivery Service) Guitar Tab

Submitted: Jun 16, 2013 by JordanVS

5
Average: 5 (8 votes)
Download | Listen
Game: Kiki's Delivery Service
Composer(s): Joe Hisaishi
Style: Arrangement, Fingerstyle

AutoScroll: Slow | Medium | Fast
A Mysterious Painting                                   
Kiki's Delivery Service
Joe Hisaishi

*Capo on the 5th fret
*Drop D



     E  E  E  H        E     E  E  E  Q    Q.        E  E  E  H        E   
E||-----------------------|-----------------------|-----------------------|
B||-----------0--------L--|-----------------------|-----------0--------L--|
G||--------2--------------|----------------2------|--------2--------------|
D||-----2-----------------|--------2--0-----------|-----2-----------------|
A||--0--------------------|-----0-----------------|--0--------------------|
D||-----------------------|--0--------------------|-----------------------|


  E  E  E  Q    Q.        E  E  E  S S H           E  E  E  E  E  E  E  E   
-----------------------|--5--------4-2-0--------|--L--------------0--2-----|
-----------------------|-----------0---L--------|--------------3--------3--|
----------------2------|--------2---------------|-----------------2--------|
--------2--0-----------|-----2------------------|--------2--0--------------|
-----0-----------------|--0---------------------|-----0--------------------|
--0--------------------|------------------------|--0-----------------------|


  E  E  E  E  Q    E.  S    E  E  E  E  E  E  E  E     E  E  E  S S H         
-------------------------|--0-----------L-----------|--5--7-----4-2-4--------|
--2----------------L---0-|--------------------------|-----------0---L--------|
--------2--4--L----------|-----------------2--------|------------------------|
-----2-------------------|--------2--0-----------2--|--------7---------------|
--0----------------------|-----0-----------0--2-----|--0--7------------------|
-------------------------|--0-----------------------|------------------------|


  E  E  E  S S E  E  E  E     E  E  E  S  S H           E  E  E  E  E  E  E  E   
--L--------2-0----0--2-----|-------------------------|-----------------5--0-----|
---------------3-----0--3--|--2--------0h-2----------|-----------------------3--|
---------------4--2--------|--------2-------2--------|--L-----------L--2--------|
--------2--0---------------|-----2-------------------|--------2--0--------------|
-----0---------------------|--0----------------------|-----0--------------------|
--0------------------------|-------------------------|--0-----------------------|


                       |--3--|                                                      
  E  E  E  E  E  E  E  S  S  S    Q    E  E  E  Q    E     E  E  E  E  E  E  E  E   
-------------------------------|------------------------|-----------------------0--|
--------------0--2--3--2s-3s-2-|--0-------0----------L--|--------------0--2--3--0--|
-----------2-----1--2--1s-2s-1-|-------2----------------|-----------2-----1--2-----|
--0--4--2--4-------------------|--4----2--4----------L--|--0--4--2--4--------------|
--0--4--2--4--0----------------|----------------0-------|--0--4--2--4--0-----------|
-------------------------------|--0---------------------|--------------------------|


                                                     |--3--|                           
  E.  T  T  E  E  E  Q    E     E  E  E  E  E  E  E  S  S  S    Q    E  E  E  Q    E   
-----------------------------|-------------------------------|------------------------|
--3---5s-3s-2--0----------L--|--------------0--2--3--2s-3s-2-|--0-------0----------L--|
--2---4s-2s-1----------------|-----------2-----1--2--1s-2s-1-|-------2----------------|
---------------4----------L--|--0--4--2--4-------------------|--4----2--4----------L--|
---------------------0-------|--0--4--2--4--0----------------|----------------0-------|
--0--------------------------|-------------------------------|--0---------------------|


                             |--3--|    |-3-|                 
  E  E  E  E  E  E  E  E     S  S  S E  S S S E  E  E  E  E   
-----------------------0--|----------------------------------|
--------------0--2--3--0--|--2s-3s-2-------------------------|
-----------2-----1--2-----|--1s-2s-1-4--2-4-2-1--------------|
--0--4--2--4--------------|----------4--2-4-2-0--4--2--0--2--|
--0--4--2--4--0-----------|----------------------4--2--0--2--|
--------------------------|--0-------------------0-----------|


                                                             |--3-|  
  E.  T  T Q.     T  T  T  T Q       Q    S  S  S  S  Q.     S  S S  
-----------0----------------------|---------------------------------|
--0---2h-3--------3h-5p-3h-5-L----|--L----3p-2p-0h-2h-3------2p-0---|
----------------------------------|-------------------------------2-|
--2-------------------------------|--0------------------------------|
----------------------------------|---------------------------------|
----------------------------------|---------------------------------|


                          |--3--|                                                |--3-|  
  H        E  E  E  E     S  S  S  T  T  T T H.              Q    S S S S Q.     S S  S  
--------------0--2--3--|--2h-3p-2p-0h-2p-0---0------------|-------0-2-4-5-7------5-7p-5-|
--0--------------------|-------------------3--------------|-----------------------------|
-----------------------|----------------------------------|-----------------------------|
-----------------------|----------------------------------|--2--------------------------|
--3--------------2-----|--0-------------------------------|---------------7-------------|
-----------------------|----------------------------------|-----------------------------|


                                                               |-3-|  
  T  T  T  T Q.     Q    E  E     Q    S. T  T  T  T T Q    E  S S S  
--4p-2p-0h-2-2------4----5--7--|--L----L--5p-3p-2p-0---0-------------|
-------------------------------|---------------------3---------3-1-0-|
-------------------------------|-------------------------------------|
--0----------------------------|-------------------------------------|
-------------------------------|--3-------------------------2--------|
-------------------------------|-------------------------------------|


  H        H           E  E  E  S S H           E  E  E  E  E  E  E  E   
-----------0--------|--5--------4-2-0--------|--L--------------0--2-----|
--------------------|------------------------|--------------3--------3--|
--2-----------------|--------2--4---L--------|-----------------2--------|
--------------------|-----2------------------|--------2--0--------------|
--0-----------------|--0---------------------|-----0--------------------|
--------------------|------------------------|--0-----------------------|


  E  E  E  E  Q    E.  S    E  E  E  E  E  E  E  E     E  E  E  S S H         
-------------------------|--0-----------L-----------|--5--7-----4-2-4--------|
--2----------------L---0-|--------------------------|-----------0---L--------|
--------2--4--L----------|-----------------2--------|------------------------|
-----2-------------------|--------2--0-----------2--|--------7---------------|
--0----------------------|-----0-----------0--2-----|--0--7------------------|
-------------------------|--0-----------------------|------------------------|


                                                        ^                       
  E  E  E  S S E  E  E  E     E  E  E  S  S H           E  E  E  E  E  E  Q     
--L--------2-0----0--2-----|-------------------------|--0----------------------|
---------------3-----0--3--|--2--------0h-2----------|--3-----------------0----|
---------------4--2--------|--------2-------2--------|--2--------------2-------|
--------2--0---------------|-----2-------------------|--------2--0-----2--4----|
-----0---------------------|--0----------------------|-----0-------------------|
--0------------------------|-------------------------|--0----------------------|


                 |--3-|                                      |--3-|  
  E  E  E  E  E  S  S S Q       E  E  E  T  T  T T  E  E  E  S  S S  
--------4--------2p-0---0----|--L-----------------------------------|
-----------0--L-------3------|-----------3p-2p-0-2h-3--------2p-0---|
--------2--------------------|------------------------------------2-|
-----2-----------------------|--------2--0-------------------2------|
--0--------------------------|-----0-------------------0--2---------|
-----------------------------|--0-----------------------------------|


                                                           ^                  
  H        E  S  S E  T  T T  T    Q.     E  Q.     S S    W                  
-------------------0-------0h-2-|--4------5--2------0-0-|--0----------------||
--0--------L--2h-3----2h-3------|-----------------------|--0----------------||
--------------------------------|--2--------------------|--2----------------||
--2-----------------------------|--0--------------------|--0----------------||
--------------------------------|-----------------------|-------------------||
--------------------------------|-----------------------|-------------------||




Duration Legend
---------------
W - whole
H - half
Q - quarter
E - 8th
S - 16th
T - 32nd
. - note dotted
|-n-|  - n-tuplets


Tablature Legend
----------------
L - tied note
h - hammer on
p - pull off
S - shift slide
s - legato slide
^ - brush up
v - brush down
Login or Register to remove this ad.

1 comment on A Mysterious Painting

This tab made my day ;) I

5

This tab made my day ;)
I hope there are just more songs from Kiki`s delivery service to tab, because you have done an outstanding well job on this ones. Every time I see a new one from you in the latest tabs, I get a big smile on my face.