Ads

Message of Rouge (Kiki's Delivery Service) Guitar Tab

Submitted: Apr 27, 2013 by JordanVS

5
Average: 5 (12 votes)
Download | Listen
Game: Kiki's Delivery Service
Composer(s): Joe Hisaishi
Style: Arrangement, Fingerstyle

AutoScroll: Slow | Medium | Fast
Message of Rouge                                      
Ryuuju no Dengon
Kiki's Delivery Service
Yumi Arai
JordanVS



*Capo on 3rd fret



     H.           E  E       Q    E  E  Q    E  E     Q    E  E  Q    E  E   
E||---------------------||-------------------------|------------------------|
B||---------------------||--------1--1-------1-----|-------1--1-------1-----|
G||---------------------||*-------0--0-------0-----|-------0--0-------0-----|
D||---------------------||*-------2--2-------2-----|-------2--2-------2-----|
A||------------------2--||---3-------0----------2--|--3-------0-------------|
E||---------------------||--------------3----------|-------------3-------3--|

						  *Segno

  Q    E  E  Q    E  E     Q    E  E  Q    E  E        Q    Q    Q    E  E   
------------------------|-------------------------||------------------------|
-------1--1-------1-----|-------1--1-------1------||------------------------|
-------2--2-------2-----|-------2--2-------2-----*||*--0----0----0-------0--|
-------2--2-------2-----|-------2--2-------2-----*||*--2--------------2-----|
--0---------------------|--0------------------2---||---3--------------------|
----------3--0-------3--|----------3--0-----------||-------------3----------|


  Q.     E  E  E  E  E     E  E  Q    Q    Q       Q    E  E  Q    E  E   
------------------------|--0--------------------|------------------------|
---------------1--3--1--|--1--3--1--------------|-------1--1-------1-----|
--L------0--2-----0-----|--2--2--2---------2----|-------2--2-------2-----|
------------------------|------------------2----|-------2--2-------2-----|
--3---------------------|--0--------------------|--0---------------------|
------------3-----------|-------------0---------|-------------0----------|


                                                     ^                       
  Q    E  E  Q    E  E     Q    E  E  E  E  E  E     E  E  E  E  Q    E  E   
------------------------|-------------------------|--0----------------------|
------------------------|----------------1--3--1--|--1--3--1----------------|
--0----0-----0-------0--|--L-------0--2-----0-----|--2--2--2----------2-----|
--2---------------2-----|-------------------------|--2----------------2-----|
--3-------0----------2--|--3-------0--------------|--0----------------------|
-------------3----------|-------------3--------3--|-----------3--0-------3--|


  Q    E  E  Q    E  E     Q    Q    Q    Q       Q    Q    Q    Q     
------------------------|----------------------|----------------------|
-------1--1-------1-----|----------------------|------------0---------|
-------2--2-------2-----|------------0----2----|--0----2---------0----|
-------2--2-------2-----|--3----3--------------|------------0---------|
--0------------------2--|------------3---------|----------------------|
----------3--0----------|--1-------------------|--3-------------------|


  ^                                                                     
  H        E  E  E  E     E  E  E  E  Q    Q       Q    Q    E  Q.      
-----------------------|------------------------|----------------------|
--1--------1--0--------|------------------------|----------------------|
--0--------------2--0--|--2--0------------------|------------0--2------|
--2--------------------|--2-----2---------------|--3----3--------------|
--3--------2-----------|--0---------------------|--3---------3---------|
-----------------------|-----------3--0---------|--1-------------------|

		      1.					-Da Coda
                         ^                                                   
  Q    Q    E  Q.        Q    E  E  Q    E  E     E  E  E  E  E  E  E  E     
----------------------|------------------------|-----3--3--3--3--3--3--3---||
------------0---------|--1---------------------|-----3--3--3--3--3--3--3---||
--0----2-------0------|--0----0--0-------0-----|-----4--4--4--4--4--4--4--*||
--0---------0---------|--2----2--2-------2-----|--------------------------*||
--2-------------------|--3----------3-------3--|---------------------------||
--3-------------------|------------------------|-----3--3--3--3--3--3--3---||

2.
                                                          ^                
  Q    E  E  Q    E  E     E  E  E  E  Q    E  E     Q    Q    E  E  Q     
------------------------|-------------------------|------------0-----3----|
--1---------------------|-----1--1----------1-----|-------1----------1----|
--0----0----------0-----|-----0--0----------0-----|-------0----------0----|
--2----2----------2-----|-----2--2----------2-----|-------2---------------|
--3-------0----------2--|--3--------0-------------|--3----3-------3-------|
-------------3----------|--------------3----------|-----------------------|


                           ^                                               
  Q    E  Q    E  E  E     E  E  E  E  E  E  Q       Q    Q    E  E  Q     
--5----3--5----3--0-----|-------------------------|-----------------------|
---------------------3--|--1--1--1-----1----------|-----------------------|
-------0----------0-----|--2--------2--------2----|-------2----------2----|
------------------------|--2-----------------2----|-------2----------2----|
--3----3-------3--------|--0-----0--------0-------|--0----0-------0-------|
------------------------|-------------------------|-----------------------|


  Q    Q    E  E  Q       Q    E  Q    E  E  E     E  E  E  E  E  E  E  S S  
-----------------------|--0-------0-------------|--0--3--0------------------|
------------1-----3----|-------3-------3--1--3--|--0--0--0--3--0--------0---|
-------2----------2----|-------2----------2-----|-----------0--0-----2--0-2-|
-------3---------------|------------------------|--------------------0----0-|
-----------------------|------------------------|---------------------------|
--1----1-------1-------|--1----1-------1--------|--3-----3--------3---------|


  E  E  E  E  E  E  E  E     Q    Q    Q    E  E     Q.     E  E  E  E  E   
--------------------------|-----------------------|------------------------|
--------------------------|-----------------------|---------------1--3--1--|
--0--0--------------------|--0----0----0-------0--|--L------0--2-----0-----|
--------3--3--2--2--0--0--|--2----2----2----2-----|------------------------|
--------------------------|--3--------------------|--3---------------------|
--3-----------------------|------------3----------|------------3-----------|


  ^                                                                    
  E  E  Q    Q    Q       H        E  Q    E     Q    Q    E  Q    E   
--0--------------------|----------------------|-----------------------|
--1--3--1--------------|--------------0----1--|-----------------------|
--2--2--2---------2----|-----------2-------2--|------------0--2----0--|
--2---------------2----|-----------2----------|--3----3---------------|
--0--------------------|--0-------------------|--3---------3----------|
-------------0---------|-----------0----------|--1--------------------|


                         ^                                               
  Q    Q    Q    Q       Q    E  E  Q    E  E     Q    E  E  Q    E  E   
----------------------|------------------------|------------------------|
------------0---------|--1----1--1-------1-----|-------1--1-------1-----|
--L----2---------0----|--0----0--0-------0-----|-------0--0-------0-----|
------------0---------|--2----2--2-------2-----|-------2--2-------2-----|
----------------------|--3-------0----------2--|--3-------0----------2--|
--3-------------------|-------------3----------|-------------3----------|

*Coda

  ^                                                                         
  Q    Q    E  E  E  E     Q    E  E  E  E  Q       Q    E  E  E  E  E  E   
------------------------|------------------------|-------------------------|
--1---------1-----0-----|------------------------|-------------------------|
--0---------0-----0-----|--2----0-----2-----0----|--2----2--2--------2-----|
--2---------------------|------------------------|--2----2--2--------2-----|
--3----3----3--3-----3--|--3----3--3--3--3-------|--0----0--0--0--0-----0--|
------------------------|------------------------|-------------------------|


                            ^                                                
  Q    E  E  E  E  E  E     Q    E  E  E  E  E  E     Q    E  E  E  E  Q     
-------------------------|-------------------------|------------------------|
-------------------------|--1----------1-----0-----|------------------------|
-------2--2--------2-----|--2----------------------|--2----0-----------0----|
-------2--2--------2-----|--3----------------------|-------------2----------|
--0----0--0--0--0--------|--3----3-----------------|------------------------|
-------------------------|--1----1--1--1--1-----1--|--1----1--1--1--1-------|


					-D.S. al coda
  ^                                                                          
  Q    E  E  E  E  E  E     E  E  E  E  E  E  E  E     Q    Q    Q    E  E   
-------------------------|--------------------------|-----------------------|
-------------------------|--------------------------|-----------------------|
--0----------------------|--0--0--------------------|--0----0----0-------0--|
--0----------------------|--------3--3--2--2--0--0--|--2----2----2----2-----|
--2----------------------|--------------------------|--3--------------------|
--3----3--3--3--3-----3--|--3-----------------------|------------3----------|


                           ^                                                
  Q.     E  E  E  E  E     E  E  Q    Q    Q         Q    E  E  E  Q    E   
------------------------|--0--------------------||-------------------------|
---------------1--3--1--|--1--3--1--------------||-----------------0----1--|
--L------0--2-----0-----|--2--2--2---------2----||*--2----------2-------2--|
------------------------|--2---------------2----||*--2----2--2--2----------|
--3---------------------|--0--------------------||---0---------------------|
------------3-----------|-------------0---------||--------------0----------|

					      1.

                                                 ^                      
  Q    Q    E  Q    E     Q    Q    Q    Q       Q    E  E  Q    E  E   
-----------------------|----------------------|------------------------|
-----------------------|------------0---------|--1----1--1-------1-----|
------------0--2----0--|--L----2---------0----|--0----0--0-------0-----|
--3----3---------------|------------0---------|--2----2--2-------2-----|
--3---------3----------|----------------------|--3-------0----------2--|
--1--------------------|--3-------------------|-------------3----------|


			  2.
                              ^                                               
  Q    E  E  Q    E  E        Q    Q    E  E  E  E     Q    E  E  E  E  Q     
-------------------------||-------------------------|------------------------|
-------1--1-------1------||---1---------1-----0-----|------------------------|
-------0--0-------0-----*||*--0---------0-----0-----|--2----0-----2-----0----|
-------2--2-------2-----*||*--2---------------------|------------------------|
--3-------0----------2---||---3----3----3--3-----3--|--3----3--3--3--3-------|
-------------3-----------||-------------------------|------------------------|


                                                      ^                       
  Q    E  E  E  E  E  E     Q    E  E  E  E  E  E     Q    E  E  E  E  E  E   
-------------------------|-------------------------|-------------------------|
-------------------------|-------------------------|--1----------1-----0-----|
--2----2--2--------2-----|-------2--2--------2-----|--2----------------------|
--2----2--2--------2-----|-------2--2--------2-----|--3----------------------|
--0----0--0--0--0-----0--|--0----0--0--0--0--------|--3----3-----------------|
-------------------------|-------------------------|--1----1--1--1--1-----1--|


                           ^                                                    
  Q    E  E  E  E  Q       Q    E  E  E  E  E  E     E  E  E  E  E  E  E  E     
------------------------|-------------------------|---------------------------||
------------------------|-------------------------|---------------------------||
--2----0-----------0----|--0----------------------|--0--0--------------------*||
-------------2----------|--0----------------------|--------3--3--2--2--0--0--*||
------------------------|--2----------------------|---------------------------||
--1----1--1--1--1-------|--3----3--3--3--3-----3--|--3------------------------||


  ^                  
  W                  
-------------------||
--1----------------||
--0----------------||
--2----------------||
--3----------------||
-------------------||




Duration Legend
---------------
W - whole
H - half
Q - quarter
E - 8th
S - 16th
. - note dotted

Tablature Legend
----------------
L - tied note
^ - brush up
v - brush down
Login or Register to remove this ad.

1 comment on Message of Rouge

Incredible

5

this tab is one of the best ghibli tabs I ever saw! I like it very much