If I've Been Enveloped by Tenderness (Kiki's Delivery Service) Guitar Tab

Submitted: May 15, 2013 by JordanVS

5
Average: 5 (10 votes)
Download | Listen
Game: Kiki's Delivery Service
Composer(s): Joe Hisaishi
Style: Arrangement, Fingerstyle

This song is also called Yasashisa ni Tsutsumareta nara

AutoScroll: Slow | Medium | Fast
If I've Been Enveloped by Tenderness     
Yasashisa ni Tsutsumareta nara                       
Kiki's Delivery Service
Joe Hisaishi & Yumi Arai
JordanVS

*To play in the original key tune down 1/2 step to Eb
(Eb - Ab - Db - Gb - Bb - Eb)



     E  S E  S E  S E  E  S E     E  S E  S E  S E  E  S E     E  S E  S E  S E  E  S E   
E||----------------------------|----------------------------|----------------------------|
B||--3--3-3--3-3----3--3--3-3--|--3--3-3--3-3----3--3--3-3--|--3--3-3--3-3----3--3--3-3--|
G||--4--4-4--4-4----4--4--4-4--|--0--0-0--0-0----0--0--0-0--|--4--4-4--4-4----4--4--4-4--|
D||--5--5-5--5-5----5--5--5-5--|--2--2-2--2-2----2--2--2-2--|--5--5-5--5-5----5--5--5-5--|
A||----------------------------|--0---------0--0---------0--|----------------------------|
E||--3---------3--3---------3--|----------------------------|--3---------3--3---------3--|


                        ^                                                       
  E  S E  S E  S E  S S E.       Q    E  E  E  E  E  E     Q    Q    Q    Q     
----------------------------||-----------3--2-----------|--0-------------------|
--3--3-3--3-3----3--3---3---||-----------------3-----0--|--1-------------------|
--0--0-0--0-0----0--0---0---||*--0----------------------|--0---------2---------|
--2--2-2--2-2----2--2---2---||*--0----------------------|------------2---------|
--0---------0--0--------0---||--------------------------|--0----0----0----0----|
----------------------------||---3----3-----3-----3-----|----------------------|


  Q    E  E  E  E  E  E     Q    Q    Q    Q       Q    E  E  E  E  S S  S  S  
-------------------------|----------------------|-------------3--2------------|
----------0--3-----------|----------------------|-------------------0---------|
--2-------------2-----2--|--0-------------------|--0-------0----------2p-0h-2-|
-------------------4-----|--2-------------------|--2--------------------------|
-------------2-----2-----|----------------------|--3----3-----3-----3---------|
--2----2-----------------|--0----0----0----0----|-----------------------------|


  Q    Q    Q    E  E     E.  S Q    E  S S E  E     E.  S Q    E.  S Q     
-----------------------|----------------0---3--0--|------------------------|
--------------------0--|--3----------L------------|--3----------------1----|
--2--------------2-----|--2----------L------------|--0----------------2----|
--2--------------------|--0---0-0----0----0-0-----|--0---0-0----0---0-0----|
--0----0----0----0-----|--------------------------|------------------------|
-----------------------|--------------------------|------------------------|


  ^                           ^                                                  
  E.  S E  E  E  S S E  E     E.  S Q    E.  S Q       E.  S E  E  E  S S E  E   
-----------3--2------------|--0---------------------|---------------------------|
--0--------0--0--3------0--|--1---------------------|-----------0--3------------|
--0--------------0------0--|--0----------2----------|--2--------------2------2--|
--0------------------------|--2----------2----------|---------------------4-----|
--2------------------------|--0---0-0----0---0-0----|--------------2----2-2-----|
--3---3-3-----3----3-3-----|------------------------|--2---2-2------------------|


  ^                        ^                               ^                       
  E.  S Q    E.  S Q       E.  S E  E  E  S S S S  S  S    E.  S Q    E.  S E  E   
------------------------|--------------3--2-------------|-------------------------|
------------------------|---------------------0---------|----------------------0--|
--0---------------------|--0--------0-----------2p-0h-2-|--2----------------2-----|
--2---------------------|--2----------------------------|--2----------------2-----|
--2---------------------|--3---3-3-----3----3-3---------|--0---0-0----0---0-0-----|
--0---0-0----0---0-0----|-------------------------------|-------------------------|


                                                    *Segno


  ^                          ^          ^              ^    ^                  
  E.  S Q    E  S S E  E     E.  S Q    E.  S E  E     Q    E  E  E  E  E  E   
----------------0---3--0--|-------------------------|-------3--2--3--2--------|
--3----------L------------|--3----------4--------0--|-------0--0--0--0--3--0--|
--2----------L------------|--4----------2-----------|-------0-----------0--0--|
--0---0-0----0----0-0-----|--4----------4-----------|--2----------------------|
--------------------------|--2---2-2----2---2-2--2--|--2----2-----------2-----|
--------------------------|-------------------------|--0----------0-----------|


  ^                          ^    ^                    ^                        
  E  E  E  E  E  E  E  E     Q    E  E  E  E  E  E     E  E  E  E  E  E  E  E   
-----0-----0--L-----------|-------3--2--3--2--------|-----0-----0--L-----------|
--3--1-----1--L-----------|-------0--0--0--0--3--0--|--3--1-----1--L-----------|
--0--------0--L-----0-----|-------0-----------0--0--|--0--------0--L-----0-----|
--2-----2--------2-----2--|--2----------------------|--2-----2--------2-----2--|
--3-----------3-----------|--2----2-----------2-----|--3-----------3-----------|
--------------------------|--0----------0-----------|--------------------------|


  ^               ^         ^                          ^                     
  Q    E  E  E  S S Q       Q    E  S S E  E  S E.     Q    Q    Q    S E.   
-------0--2--3--2-0-L----|------------5-------------|-----------------------|
------------------1-L----|--5----7--8-5----8--7-5---|--3----------------3---|
--0----0-----0----0-L----|--5----5--5------5--5-5---|--4--------------4-----|
--2----------------------|--------------------------|--4--------------------|
--3----3-----3------2----|--0----0------0-----0-----|--2----2----2----2-----|
-------------------------|--------------------------|-----------------------|


                                                *Da Coda

  ^         ^              ^                         ^          ^            
  Q    Q    Q    E  S S    S S E  E  E  Q    Q       Q    E  E  E  E  S E.   
--0---------------------|-------------------------|-------------7--7--5-----|
--0-----------------3-3-|--3-1-1--L---------------|-------0--1--5--5--5-8---|
--0-----------------0-0-|--0-0-0--0---------------|--2----------5-------5---|
--2---------2-----------|--2---------2------------|--2----------------------|
-------2----2-----------|--3------------3----2----|--0----0-----0-----0-----|
------------0-----------|-------------------------|-------------------------|


                        1.


  ^                        ^       ^                                       
  Q    Q    E  E  E  E     Q    E  E  Q    Q       E.  S Q    E.  S E  E   
--5------------------5--|--7-------5--L---------|--3----------0-----------|
--5------------5--8-----|--8-------7--L---------|--3----------0-----3--0--|
--0---------------------|--7-------5--L---------|--0----------------2--0--|
--0----0----0-----0-----|--0----0-----0----0----|-------------------------|
------------------------|-----------------------|-------------------------|
------------------------|-----------------------|--3---3-3----3---3-3-----|


                              ^                                                     
    E.  S Q    E.  S E  E     E.  S Q    E  S S E  E     E  S S E  E  E.  S Q       
---------------------------|--------------------------|---------------------------||
---------------------------|----------------0---0--0--|--0------------------------||
---------------2-----0-----|--0-------------0---------|-----2---2--0--0---2-L----*||
--1g0-------------------2--|--0-----------------------|--------------------------*||
---------------------------|--2-----------------------|---------------------------||
----3---3-3----3---3-3-----|--3---3-3----3----3-3-----|--3----3-3-----3---3-3-----||


2.                                      D.S al Coda  *Coda

  ^       ^                                             ^                     
  Q    E  E  E.  S Q       E.  S E  E  S  E.  E   E     H        E  E  E  E   
--7-------5--L----------|----------------------------|--7--------7--5-----5--|
--8-------7--L----------|----------------------------|--7--------------8-----|
--7-------5--L----------|----------------------------|--5--------------------|
--0----0-----0---0-0----|---------------------0h--1--|--0--------0-----------|
------------------------|-----------0--0h-2----------|-----------------------|
------------------------|--0---3-3-------------------|-----------------------|


     ^                                                                               
  E  E  E  E  E  E  E  E     E  S E  S E  E  S E  S E     E  S E  S E  E  S E  S E   
--L--3--L-----------------|--0-------------------------|----------------------------|
-----3--L-----------------|--1--1-1--1-1--1--1-1--3-3--|--3--3-3--3-3--3--3-3--3-3--|
-----0--L--------------0--|--0--0-0--0-0--0--0-0--0-0--|--4--4-4--4-4--4--4-4--4-4--|
--------0-----------0-----|-----2-2--2-2--2--2-2--2-2--|--5--5-5--5-5--5--5-5--5-5--|
-----------2-----2--------|----------------------------|----------------------------|
--3-----------3-----------|--3---------3------------L--|--3---------3------------L--|


                                    ^                                  
  E  S E  S E  E  S E  S E     Q    H.              W                  
---------------0------------|-------3------------|--L----------------||
--3--3-3--3-3--1--3-3--3----|-------5------------|--L----------------||
--0--0-0--0-0-----0-0--0----|-------4------------|--L----------------||
--2--2-2--2-2---------------|-------5------------|--L----------------||
----------------------------|--------------------|-------------------||
--3---------3------------L--|--3-----------------|--L----------------||




Duration Legend
---------------
W - whole
H - half
Q - quarter
E - 8th
S - 16th
. - note dotted


Tablature Legend
----------------
L - tied note
g - grace note
h - hammer on
p - pull off
^ - brush up
v - brush down
Login or Register to remove this ad.

1 comment on If I've Been Enveloped by Tenderness

It's good stuff ^^ just

5

It's good stuff ^^ just noticed 2 errors about chords & again one in the melody, the ost sounding more like that :

     G5              G5                        A (instead of Am7)                                                   
     Q               Q                         Q                       Q    E  E  E  E  S S  E     
E||-------|-------|-------|-------||--------|--0----|-------|-------|-------------0--------------||
B||--3----|-------|--3----|-------||--------|--2----|-------|-------|----------------3--0--------||
G||--0----|-------|--0----|-------||*-------|--2----|-------|-------|--0-------0----------2p-0h--||
D||--0----|-------|--0----|-------||*-------|-------|-------|-------|--2-------------------------||
A||-------|-------|-------|-------||--------|--0----|-------|-------|--3----3-----3-----3--------||
E||--3----|-------|--3----|-------||--------|-------|-------|-------|----------------------------||

the rest sounds great ! Thanks for all these tabs