Hare Tajitsu Ni (Kiki's Delivery Service) Guitar Tab

Submitted: May 17, 2011 by diralark

5
Average: 5 (11 votes)
Download | Listen
Game: Kiki's Delivery Service
Composer(s): Joe Hisaishi
Style: Arrangement, Fingerstyle

AutoScroll: Slow | Medium | Fast
                        Hare Tajitsu Ni      from Kiki's Delivery Service

              Music by Joe Hisaishi  >> Piano arr. by ?? >> Guitar tab by Diralark

Guitar, tempo 108

      III               --                --                                                  
      Q    Q    Q       Q    Q    Q       Q    Q    Q       Q    Q    Q       Q    Q    Q     
E||---3--------------|------------5----|--3--------------|-----------------|--0--------------|
B||--------5----5----|--7----4---------|-------5----5----|-------3----3----|-------1----1----|
G||*-------5----5----|-------5---------|-------5----5----|-------0----0----|-------2----2----|
D||*-----------------|-----------------|-----------------|-----------------|-----------------|
A||---3--------------|--3--------------|--3--------------|--2--------------|--0--------------|
E||------------------|-----------------|-----------------|-----------------|-----------------|


                                                        I                                 
  Q    Q    Q       Q    Q    Q       Q    Q    Q       Q    Q    Q       Q    Q    Q     
-----------------|--0--------------|-----------------|-----------------|-----------------|
--4---------6----|-------1----1----|-------0----0----|--1--------------|--0---------3----|
-------5---------|-------2----2----|-------0----0----|-------2----2----|-------0---------|
-------4---------|-----------------|-------2----2----|-------3----3----|-------0---------|
--0--------------|--0--------------|-----------------|-----------------|-----------------|
-----------------|-----------------|--3--------------|--1--------------|--1--------------|

1._____________
                                                                  hard part                    
  Q    Q    Q       Q    Q    Q       Q    Q    Q       Q    Q    Q            Q    Q    Q     
-----------------|-----------------|--0--------------|----------------------|-----------------|
--1--------------|--0----1----3----|------------3----|--3-------------------|--3--------------|
-------0----0----|--0--------------|-------2----2----|------------2---------|-------2----2----|
-----------------|-----------------|--0----4----4----|--0----4----4---------|-------3----3----|
-------3----3----|-----------------|-----------------|-------5----5---------|-----------------|
--0--------------|--0--------------|-----------------|----------------------|--3--------------|


                    2._____________                                        III             
  Q    Q    Q         Q    Q    Q       Q    Q    Q       Q    Q    Q       Q    Q    Q     
------------------||------------0----|--3---------1----|--0--------------|-----------------|
--0----1----3-----||--1--------------|-----------------|-------1----1----|--3---------3----|
-----------------*||-------0---------|-------2----2----|-------0----0----|--4----4---------|
--3--------------*||-----------------|--0----3----3----|-----------------|--3--------------|
-------0----------||-------3---------|-----------------|-----------------|-----------------|
--3---------------||--0--------------|-----------------|--3--------------|--3--------------|


                                      III                  --                 --              
                                                           ^                                  
  Q    Q    Q       Q    Q    Q       E   E  Q    E  E     Q.     E  E  E     Q    Q    Q     
-----------------|--0----1----3----|--5---5--5-------5--|--5------5--7--5--|--3--------------|
--1--------------|--1----3----5----|---------6----------|--6---------------|-------5----5----|
-------0---------|-----------------|--------------------|------------------|-------5----5----|
------------2----|-----------------|--3-----------3-----|--3---------------|-----------------|
--3--------------|--3--------------|--------------------|------------------|--3--------------|
-----------------|-----------------|--------------------|------------------|-----------------|


  --                I                                                                        
                                        ^                                                    
  Q    Q    Q       E  E  Q    E  E     Q.     E  E  E     Q    Q    Q       Q    Q    Q     
-----------------|--1--1--1-------1--|--1------1--3--1--|--0--------------|--0--------------|
--5--------------|--------1----------|--1---------------|-------1----1----|-------1---------|
-------5----5----|--------2----2-----|--2---------------|-------0----0----|-------0---------|
-------5----5----|-------------------|------------------|-----------------|-----------------|
--3--------------|-------------------|------------------|--3--------------|--3---------2----|
-----------------|--1----------------|--1---------------|-----------------|-----------------|


        Am           Am/G                                                                   
        ^                                                                        ^          
  E  E  Q.     E     Q    Q    Q       Q    Q    Q       Q    Q    Q       E  E  Q.     E   
------------------|-----------------|--0--------------|-----------------|------------------|
--1--1--1------1--|--1----0----1----|-------1----1----|-------0----1----|--3--3--3------3--|
--------2---------|--2--------------|-------2----2----|--2--------------|--------2---------|
--------2---------|--2--------------|-----------------|--3--------------|--0-----4---------|
--0---------------|-----------------|-----------------|--3--------------|------------------|
------------------|--3--------------|--2--------------|--1--------------|------------------|


                                    III    Da Capo   VIII                  --            
                    ^                                 ^                     ^             
  Q    Q    Q       H.              Q    H            Q.      E   E  E      H.            
-----------------|--0------------|--3----3--------|---------------------|----------------|
--3---------3----|--0------------|--3----3--------|---------------------|----------------|
--2----5---------|--2------------|--5----5--------|---9-----------------|---8------------|
--3--------------|---------------|--3-------------|--10----------10--9--|--10------------|
-----------------|---------------|----------------|--10------10---------|---9------------|
-----------------|--0------------|--3-------------|---8-----------------|---8------------|


   --                   --              --               
   ^                    ^                                
   Q.     E  E   E      H.              E  H        E    
-------------8------|---8------------|-----------------||
----------8-----12--|----------------|-----------------||
---9----------------|---9------------|-----------------||
--------------------|--10------------|-----------------||
--10----------------|----------------|-----------------||
---8----------------|---8------------|-----8--------L--||

Legend
---------------
H - half
Q - quarter
E - 8th
. - note dotted
L - tied note
^ - brush up

Note : You can find fingersteps in .gp5 or .pdf files
Login or Register to remove this ad.

3 comments on Hare Tajitsu Ni

aaaaaawwwwwww

5

aaaaaawwwwwww yeeeeeeaaaaaaahhhhh

:)

Thanks !

i love it <3

i love it <3