Ads

Departure (Kiki's Delivery Service) Guitar Tab

Submitted: Feb 13, 2014 by Basisti94

5
Average: 5 (6 votes)
Download | Listen
Game: Kiki's Delivery Service
Composer(s): Joe Hisaishi
Style: Arrangement, Fingerstyle

This song is also called Tabidachi

AutoScroll: Slow | Medium | Fast
                           Tabidachi / Departure
                                
Kiki's Delivery Service 
Joe Hisaishi
Guitar arrangement by Basisti94 (Miro Laaksonen)
12.2.2014


Tuning: Drop D
Tempo ~ 90        
                                             ^                     
     E  E  E  E  H           E  E  E  E  H           Q    E  E  Q.     E   
E||-----------0--L--------|-----------0--L--------|-----------------------|
B||--------3--------------|--------3--------------|-------1-----0---------|
G||-----0-----------------|-----0-----------------|--0-----------------0--|
D||-----------------------|-----------------------|--2-------2------------|
A||--3--------------------|--3--------------------|--3--------------------|
D||-----------------------|-----------------------|-----------------------|


  E  E  E  H        E     E  E  E  E  Q.     E     E  E  E  Q.     E  E   
-----------------------|--------1-----0---------|------------------0--1--|
-----------------------|---------------------2--|--3---------------------|
--2--------------------|--2---------------------|------------------------|
--------2--3-----------|-----------2------------|--------2--3------------|
-----0--------------0--|-----0------------------|-----0------------------|
--0--------------------|--0---------------------|--0---------------------|


  E  E  E  E  Q    E  E     E  E  E  Q.     E  E     E  E  E  E  Q    E  E   
--3--------3--3----------|-----------0---------0--|--1--------1--1----------|
-------------------3--2--|--------2---------3-----|--------1----------1--0--|
-----0--3----------------|-----0------------------|-----2-----2-------------|
--2----------------------|------------------------|--0----------------------|
-------------------------|--0---------------------|-------------------------|
-------------------------|------------------------|-------------------------|


  E  E  E  E  E  E  E  E     E   E    E    E   E   E    E    E    
--------------------------|----------(3)---------------(3)-------|
-----------0-----0--1--3--|-----(3)-------(3)-----(3)-------(3)--|
--------2-----------------|--------------------------------------|
-----0--------3-----------|--2-----------------1-----------------|
--------------------------|--------------------------------------|
--5-----------------------|--------------------------------------|


                    ^                                    
  E   E    E    E   H           E  E  E  E  E  E  E  E   
----------(3)-------3--------|--------------------------|
-----(3)-------(3)--0--------|--------1-----0-----------|
--------------------0--------|--0--------------0-----0--|
--0--------------------------|-----2-----2--------2-----|
--------------------4--------|--3-----------------------|
-----------------------------|--------------------------|


  E  E   E  E  E  E  E  E     E  E  E  E  E  E  E  E   
---------------------------|--------1-----0-----------|
---------------------------|--------------2--------2--|
--2------------------------|--2-----------------------|
------------2--3-----3-----|--------2--3--------0-----|
-----0h--3--------0-----3--|-----0-----------0--------|
--0------------------------|--0-----------------------|


  E  E  E  E  E  E  S S S S    E  E  E  E  E  E  E  E   
----------------------0-1-2-|--3--------3--3-----------|
--3-------------------------|--------------------3--2--|
-----2--0-------------------|-----0--3--------0--------|
-----------3--2--0----------|--2-----------------------|
--------------------3-------|--------------------------|
--0-------------------------|--------------------------|


  E  E  E  E  Q    S S S S    E  E  E  E  E  E  E  E     E  E  E  E  Q    Q     
--------------3----------0-|--1--------1--1--------0--|--L---------------------|
-----------2-------1-2-3---|--------1-----------------|-------------------0----|
-----0--2------------------|-----2--------------2-----|--------7---------------|
---------------------------|--------------------3-----|-----6------------------|
--0------------------------|-----------------0--------|-----------7--8---------|
---------------------------|--0-----------------------|--5---------------------|


                                               |-6-| |-6-|  
  E  E  E  E  E  E  E  E     E  E  E  E  E  E  S S S S S S  
--------------3-----------|--------------3-----------1-3-5-|
--------3--1--------------|--------3--1--------1-3-5-------|
-----0-----0-----0--------|-----0-----------0--------------|
-----0--------------0--2--|-----------0--------------------|
--3-----------------------|--3-----------------------------|
--------------------------|--------------------------------|


            |-----3-----|                      
  Q.      E  Q    Q    Q       H          E  E  E  E
--6-------6--6----5---------|--6----------L-----6--3--|
-----------------------8----|----------------3--------|
----------------------------|----------------------3--|
----------------------------|-----3----3--3--3--------|
-----5----5--5--5--------5--|--3----------------------|
--5-------------------------|-------------------------|
  E  Q    E  E  Q        E     E  Q    E  E  Q     E


            |-----3-----|                      
  Q.      E  Q    Q    Q       H          E  E  E  E   
--5-------5--5----3---------|--5----------L--5--6--8--|
-----------------------6----|-------------------------|
----------------------------|-------------------------|
----------------------------|-------------------------|
-----3----3--3--3--------3--|-----3----3--3--3-----3--|
--3-------------------------|--3----------------------|
  E  Q    E  E  Q        E     E  Q    E  E  Q     E


            |-----3-----|                      
  Q.      E  Q    Q    Q       H          E  E  E  E  
--9-------9--9----8----------|--9----------L-----9--6--|
-----------------------11----|----------------6--------|
-----------------------------|-------------------------|
-----------------------------|-----8----8--8--8-----8--|
-----8----8--8--8---------8--|--6----------------------|
--8--------------------------|-------------------------|
  E  Q    E  E  Q         E     E  Q    E  E  Q     E


            |-----3-----|                      
  Q.      E  Q    Q    Q       E  Q    E  E  Q.        Q    Q    Q.     E   
--8-------8--8----6---------|-----------------------|----------------------|
-----------------------9----|--8--------------------|-------1----0---------|
----------------------------|-----------------------|--0----------------0--|
----------------------------|-----7----7-----5------|----------------------|
-----6----6--6--6--------6--|--7-------------4------|--3-------------------|
--6-------------------------|-------------5---------|----------------------|
  E  Q    E  E  Q        E 


  H.           E  E     Q    Q    Q.     E     E  E  E  E  E  E  E  E   
---------------------|-------1----0---------|--------------------3--5--|
---------------------|-------------------2--|--3-----------------------|
--2------------------|--2-------------------|-----2--0-----------------|
--0------------L-----|--0-------------------|--0--------3--2--0--------|
------------------0--|----------------------|--------------------------|
---------------------|----------------------|--------------------------|


  E  E  E  E  Q    E  E     E  E  H        E  E     E  E  E  E  Q    E  E   
--6--------6--6----1--0--|--L--------------1--3--|--5--------5--5----5--7--|
--------3----------------|--------2--------3--5--|--6--------6--6-------5--|
-----0-------------------|-----0-----------------|--------7----------------|
--2----------------------|-----------------------|-----7-------------------|
-------------------------|--0--------------------|--5----------------------|
-------------------------|-----------------------|-------------------------|


  E  E  E  E  Q    E  E      E  E   E  E  E  E   E  E   
-------------------------|----------------8------------|
-------------------0-----|------8------8-----8------8--|
--------7----------0-----|-----------------------------|
-----5-------------------|--10-----10-----------10-----|
-----------8----------8--|-----------------------------|
--5-----------5----------|-----------------------------|


  E  E   E  E  E  E   E  E     E  E   E  E  E  E   E  E   
--8------------8------------|--8------------8------------|
-----8------8-----8------8--|-----8------8-----8------8--|
----------------------------|----------------------------|
--------10-----------10-----|--------10-----------10-----|
----------------------------|----------------------------|
----------------------------|----------------------------|


                           ^                                          
                                             
  E  E  E  E  Q    Q       W                                          
------------------------|-------------------|
--------------8----6----|--8----------------|
--------5---------------|--7----------------|
-----------8------------|--5----------------|
-----6------------------|-------------------|
--6---------------------|--5----------------|


I omitted the final part of the song from my arrangement because that would have required 
completely different tuning and capo.


Duration Legend
---------------
W - whole
H - half
Q - quarter
E - 8th
S - 16th
T - 32nd
X - 64th
. - note dotted
|-n-|  - n-tuplets


Tablature Legend
----------------
L - tied note
x - dead note
g - grace note
(n) - play quietly
> - accentuded note
NH - natural harmonic
AH - artificial harmonic
TH - tapped harmonic
SH - semi harmonic
PH - pitch harmonic
h - hammer on
p - pull off
b - bend
S - shift slide
s - legato slide
/ -  slide into from below or out of upwards
\ -  slide into from above or out of downwards
~ - vibrato
W - wide vibrato
tr - trill
TP - tremolo picking
T - tapping
S - slap
P - pop
< - fade in
^ - brush up
v - brush down
Login or Register to remove this ad.