Departure (Kiki's Delivery Service) Guitar Tab

Submitted: May 22, 2013 by JordanVS

5
Average: 5 (8 votes)
Download | Listen
Game: Kiki's Delivery Service
Composer(s): Joe Hisaishi
Style: Arrangement, Fingerstyle

This song is also called Tabidachi

AutoScroll: Slow | Medium | Fast
Departure   
Tabidachi                                      
Kiki's Delivery Service
Joe Hisaishi
JordanVS



*Capo on 3rd fret



     E  E  E  H        E     E  E  E  H        E     E  E  E  E  Q.     E   
E||-----------------------|-----------------------|------------------------|
B||--------0--2--------L--|--------0--2--------L--|------------------------|
G||-----------------------|-----------------------|--------2-----1---------|
D||-----2-----------------|-----2-----------------|--2------------------2--|
A||--0--------------------|--0--------------------|--0-----2--4------------|
E||-----------------------|-----------------------|-----0------------------|


  E  E  E  H        E     E  E  E  E  Q.     E     E  E  E  Q.     E  E   
-----------------------|------------------------|------------------------|
-----------------------|--------3-----2---------|--0---------------2--3--|
-----------------------|---------------------3--|------------------------|
--4--------------------|--4--------0------------|-----------0------------|
--2-----4--5-----------|--2-----4---------------|--2-----4---------------|
-----2--------------2--|-----2------------------|-----2------------------|


  E  E  E  E  Q    E  E     E  E  E  Q.     E  E     E  E  E  E  Q    E  E   
--0--------0--0----------|------------------------|-------------------------|
-----------0-------0-----|-----------2------0--2--|--3--------3--3----------|
--------0-------------3--|--------3---------------|--------2----------2--1--|
-----2-------------------|-----2------------------|-----0-----4-------------|
--4----------------------|------------------------|--2----------------------|
-------------------------|--2---------------------|-------------------------|


                                                                    ^         
  E  E  E  E  E  E  E  E     E  E  E  E  E  E  E  E     E  E  E  E  H         
--------------------------|--------0-----------0-----|--------0-----0--------|
--------------3--------0--|-----0-----0-----0-----0--|-----0-----0--1--------|
-----------1-----1--2-----|--------------------------|--------------1--------|
--------4-----------------|--2-----------2-----------|--2-----------0--------|
-----2--------------------|--4-----------3-----------|--2-----------2--------|
--0-----------------------|--------------------------|--------------0--------|


  E  E  E  E  E  E  E  E     E  E  E  E  E  E  E  E     E  E  E  E  E  E  E  E   
--------------------------|--------------------------|--------------------------|
--------------------------|--------------------------|--------3-----2-----------|
--------2-----1-----------|--------------------------|-----------------------3--|
--2-----------2--------2--|--4-----------0-----0-----|--4--------0--------------|
--0--4-----4-----4--0-----|--2-----0--4-----------0--|--2-----0-----1-----1-----|
--------------------------|-----2-----------2--------|-----2-----------2--------|


  E  E  E  E  E  E  S S S S    E  E  E  E  E  E  E  E     E  E  E  E  Q    S S S S  
----------------------------|--0--------0--0-----------|--------------0------------|
--0-------------------2-3-4-|--------------------0-----|-------------------------2-|
----------------------------|--------0--------------3--|--L--------3-------4-3-4---|
-----4--2--0----------------|-----2-----2--------------|-----2--4------------------|
--2-----------4--2--0-------|--4-----------4-----------|---------------------------|
------------------------4---|-----------------3--------|--2------------------------|


  E  E  E  E  E  E  E  E     E  E  E  E  Q    Q       E  E  E  E  E  E  E  E   
--------------------------|------------------------|--------------0-----------|
--3--------3--3--------2--|--------0---------------|--------0-----------------|
--------------------------|-------------------1----|--2--------2--2-----------|
--------------0-----4-----|--3-----0-----0---------|-----2-----------2--------|
--2-----0--2--------5-----|-----------4------------|--0-----0--4--------2--4--|
-----2-----------2--------|--0--1------------------|--------------------------|


                                  ^                           ^                      
                                            |----3----|                              
  E  E  E  E  E  S S S  S S  S    Q.     E  Q    Q    Q       Q    Q    E  E  E  E   
--------------0-----------0h-2-|--3------3--3----2----0----|--3---------------3--0--|
--------0----------0-2h-3------|--0------0--0----0----0----|--0------------0--0--0--|
-----------2-----2-------------|--0------0--0--------------|--0---------0--0--0--0--|
-----2--------2--2-------------|--2-------------------0----|--2----2----------------|
--0-----0--4-------------------|--2------------------------|--0------------0--------|
-------------------------------|--0---------0--------------|------------------------|


  ^                           ^                        ^                         
            |----3----|                                          |----3----|     
  Q.     E  Q    Q    Q       Q    Q    E  E  E  E     Q.     E  Q    Q    Q     
--2------2--2----0---------|--2------------2--3--5--|--6------6--6----5----3----|
--2------2--2---------3----|--2---------2--2--2--2--|--3------3--3----3----3----|
--2------2--2----2----2----|--2---------2--2--2--2--|--3------3--3----3----3----|
--4---------4--------------|--4----4----0-----------|---------------------------|
--5------5-----------------|--5---------------------|---------------------------|
---------------------------|------------------------|--3---------3--------------|


  ^                       ^                                       ^         
                                    |----3----|                             
  Q.     Q    E  E  E     Q.     E  Q    Q    Q       E  E  E  E  H         
--6--------------6--3--|--5------5--5----3----1----|--0-----------0--------|
--5------5----3-----3--|--5------5--5---------1----|--0-----0-----0--------|
--3------3----3--------|--5------5--5----5----2----|-----2-----2--1--------|
-----------------------|--7------7-----------------|--------0-----0--------|
--3-----------3--------|--8------------------------|--2-----------2--------|
-----------------------|---------------------------|--------------0--------|


  Q    Q    Q.     E     H.           E  E     Q    Q    Q.     E     H.           E  E   
----------------------|---------------------|----------------------|---------------0--2--|
----------------------|---------------------|-------3----2---------|--0------------------|
-------2----1---------|---------------------|-------------------3--|---------------------|
--2----------------2--|--4------------L-----|--4-------------------|---------------------|
--0-------------------|--2------------L-----|--2-------------------|--2------------------|
----------------------|------------------2--|----------------------|---------------------|


  Q.     E  Q    E  E     H.           E  E     Q.     E  Q    E  E   
--3------3--3----------|------------------0--|--2------2--2----2--4--|
-----------------3--2--|--L------------3-----|--------------------2--|
-----------------------|---------------------|-----------------------|
-----------------0-----|---------------------|-----------------------|
--4--------------------|---------------------|--2--------------------|
-----------------------|--2------------------|-----------------------|


  Q    H        E  E     E  E  E  E  E  E  E  E     E  E  E  E  E  E  E  E   
--L-------------------|-----0-----0--5--0-----0--|--5--0-----0--5--0-----0--|
--L-------------------|--------------------------|--------------------------|
----------------1-----|--2-----2-----------2-----|--------2-----------2-----|
----------------2--0--|--------------------------|--------------------------|
-------2--------------|--0-----------------------|--0-----------------------|
--0-------------------|--------------------------|--------------------------|


                                                    ^                 
  E  E  E  E  E  E  E  E     Q    Q    Q    Q       W                 
--5--0-----0--5--0-----0--|------------0---------|--0----------------|
--------------------------|-----------------3----|--0----------------|
--------2-----------2-----|-------2--------------|--2----------------|
--------------------------|----------------------|-------------------|
--------------------------|----------------------|-------------------|
--3-----------------------|--1-------------------|--0----------------|


  S S S S S S S S S S S S S S S S    E  E  E  E  S S  E  E  E   
----------------------------------|----------------2p-0--------|
--------------------------1-3-1-3-|--------3--1--3-------------|
------------------1-3-1-3---------|-----1----------------------|
--2-0---0-2-4-2-4---------2-------|----------------------------|
------3---------------------------|----------------------------|
--0---0---0---0---0---0---0---0---|--0--0--0--0--0----0--0--0--|


  E  E  E  E  S S E  E  E     S S S S S S S S S S S S S S S S  
--------0-----0-4-2--------|--7-5-4-2-4-2-0---0---------------|
-----3-----3---------------|----------------3---3-1---1-------|
---------------------------|------------------------3---2-1---|
---------------------------|--------------------------------4-|
---------------------------|----------------------------------|
--0--0--0--0--0---0--0--0--|--0---0---0---0---0---0---0---0---|


  S  S S  S S  S S  S S  S S  S S  S S  S    S  S S  S S  S S  S S  S S  S S  S S  S  
------------------------------------------|------------------------------------------|
------------------------------------------|------------------------------------------|
------------------------------------------|------------------------------------------|
--2h-4-2h-4-2h-4-2h-4-2h-4-2h-4-2h-4-2h-4-|--2h-4-2h-4-2h-4-2h-4-2h-4-2h-4-2h-4-2h-4-|
------------------------------------------|------------------------------------------|
--0----0----0----0----0----0----0----0----|--0----0----0----0----0----0----0----0----|


                                ^                                                    
  S  S S  S S  S S  S S  S S  S Q       Q    Q    Q.     E     E  E  E  E  H         
-------------------------------------|----------------------|-----------------------|
-------------------------------------|----------------------|-----------------------|
-------------------------------------|-------2----1---------|-----------------------|
--2h-4-2h-4-2h-4-2h-4-2h-4-2h-4-2----|--2----------------2--|--4--------------------|
--------------------------------2----|--0-------------------|--2-----4--5-----------|
--0---------0---------0---------0----|----------------------|-----2--------2--------|


  E  E  E  E  Q.     E     E  E  E  E  E  E  E  E     Q    E  E  Q    E  E   
------------------------|--------------------------|--0-------0--0----------|
--------3-----2---------|--0-----------------2--3--|-------0----------0-----|
---------------------3--|--------------------------|--0------------------3--|
--4--------0------------|-----4--2--0--------------|-------------2----------|
--2-----4---------------|--2-----------4--2--0-----|--4---------------------|
-----2--------2---------|-----------------------4--|------------------------|


                                                    ^                 
  E  E  E  Q.     E  E     E  E  E  E   H           W                 
------------------------|------------------------|-------------------|
--------2--3------0--2--|--3---------------------|-------------------|
--L---------------------|-----------2h--L--------|--L----------------|
-----4------------------|-----0--4---------------|-------------------|
------------------------|------------------------|-------------------|
--2---------------------|--0---------------------|-------------------|


-------------------||
-------------------||
-------------------||
-------------------||
-------------------||
-------------------||




Duration Legend
---------------
W - whole
H - half
Q - quarter
E - 8th
S - 16th
. - note dotted
|-n-|  - n-tuplets


Tablature Legend
----------------
L - tied note
h - hammer on
p - pull off
^ - brush up
v - brush down
Login or Register to remove this ad.

3 comments on Departure

Thank you for this. I was

Thank you for this. I was actually hoping that you'd do this particular song. It's one of my favourites from the soundtrack.

Really good, thanks for

5

Really good, thanks for making it!

Ghibli tab rocks !

5

It sounds great as usual ^^
Btw you began the right melody bar n°31 but u don't finish it in the same tune because in the middle of the bar n°34 this melody is suddenly detuned from there and to bar n°38. I didn't understand this choice instead simply repeating of the righ tune already wrote from bar N°17 to 20.
I though you used a version I didn't know of Departure, Ghibli publlish so much CDs I even not the free time to listen all of it -_-'