A Date at the Beach (Kiki's Delivery Service) Guitar Tab

Submitted: May 31, 2013 by JordanVS

5
Average: 5 (6 votes)
Download | Listen
Game: Kiki's Delivery Service
Composer(s): Joe Hisaishi
Style: Arrangement, Fingerstyle

This song is also called Nagisa no Deito

AutoScroll: Slow | Medium | Fast
A Date at the Beach                                     
Nagisa no Deito
Kiki's Delivery Service 
Joe Hisaishi
JordanVS



*Capo on the 1st fret!
*Drop D Tuning!

-This song is only in the Image Album



     E.  S E  E  H           E.  S E  E  H           E.  S E  E  H         
E||-----------------------|-----------------------|-----------------------|
B||--2---2----2--0--------|--3---3----3--2--------|--2---2----2--0--------|
G||--2---2----2--2--------|--4---4----4--4--------|--2---2----2--2--------|
D||--4---4----4--4--------|--5---5----5--5--------|--4---4----4--4--------|
A||-----------------------|-----------------------|-----------------------|
D||-----------------------|-----------------------|--0--------------------|


  E.  S E  E  H           E.  S E  E  H           E.  S E  E  H         
-----------------------|-----------------------|-----------------------|
--3---3----3--2--------|--2---2----2--0--------|--3---3----3--2--------|
--4---4----4--4--------|--2---2----2--2--------|--4---4----4--4--------|
--5---5----5--5--------|--4---4----4--4--------|--5---5----5--5--------|
--------------0--------|-----------------------|--------------0--------|
--2--------------------|--0---0----0--0--------|--2---2----2-----------|


                                                   *Segno
  E.  S E  E  H           E.  S E  E  Q    E  S S      E.  E.  E  Q.     E   
-----------------------|--------------------------||------------------------|
--2---2----2--0--------|--3---3----3--2-----------||-----------0------------|
--2---2----2--2--------|--4---4----4--4---------0-||*--2---2------2------2--|
--4---4----4--4--------|--5---5----5--5-------4---||*--0--------------------|
-----------------------|--------------0-----------||--------------2---------|
--0---0----0--0--------|--2---2----2--------------||---0---0---0--0---------|


  E.  E.  E  Q.     S S    E.  E.  E  E.  E.  E     E.  E.  E  Q    E  E   
------------------------|---------------------0--|------------------------|
------------------------|-------------2---3------|--0---------------0--7--|
--2---0---------------0-|--2-------2-------------|--0---------------0-----|
--2-------4--2------4---|--0---------------------|------------------------|
-------------0----------|-------------2----------|-------------0----------|
--2---2---2-------------|--0---0---0--0----------|--2---2---2-------------|


  E.  E.  E  Q.     E     E.  E.  E  Q    E  E     E.  E.  E  E.  E.  E   
-----------------------|--0---0---2--0----0-----|------------------------|
--7---7---8--5---------|--2----------0-------3--|--0---0---0--0-------0--|
-------------6------2--|--2----------2----------|------0------0---2------|
--5--------------------|------------------------|--0---------------------|
-----------------------|-------------2----------|------------------------|
--5---5---5--5---------|--4---4---4-------------|--5---5---5--2----------|

1.                         2.
  E.  E.  E  Q    E  S S      E.  E.  E  E  E  E  E     Q.     E  E.  E.  E   
--------------------------||-------------------------|-----------------------|
--------------------------||--3-------------3--3--3--|--3------3--3----------|
-----------------------0-*||----------------2--2--2--|--3-------------5---3--|
--4------------------4---*||-------------0--3--------|--5--------------------|
--4---------------0-------||----------0--------------|------------3----------|
--4---4---4--5------------||--0---4------------------|-----------------------|


  H        Q    E  E     E.  E.  E  E.  E.  E     H        Q    E  E   
----------------------|---------------------0--|----------------------|
--1-------------------|------3---6--5---3------|----------------------|
--2----------------2--|--3---------------------|--2----------------2--|
--3--------0----------|--5---------------------|--3--------0----------|
----------------------|-------------3----------|----------------------|
----------------------|------------------------|----------------------|


  E.  E.  E  Q.     E     E.  E.  E  Q    Q       H        E.  E.  E   
-----------------------|----------0--3----1----|--5--------5---3---1--|
------1---3--1------1--|--2---3----------------|----------------------|
--3----------2---------|--2--------------------|--3--------0----------|
--5--------------------|-------------0---------|--5-------------------|
-----------------------|-----------------------|----------------------|
-----------------------|-----------------------|----------------------|


  ^                                                                        
  E.  S E  E  H            E.   E.   E   H           E.   E.  E  H         
--0-----------L--------|--------9-----------------|--7---10---7--9--------|
--0-----------L--------|--10--------10--12--------|--8----8---8--8--------|
--0-----------2--------|--11---11---11--11--------|--7--------------------|
--2---2----2-----------|---0----0----0---0--------|--------------7--------|
--------------0--------|--------------------------|--7----7---7-----------|
-----------------------|--------------------------|-----------------------|


   E.   E.   E   H           E.   E.  E  H            E.   E.   E  E.  E.  E   
--------9-----------------|--7---10---7--9--------|--14---12---10--9---7---5--|
--10--------10--12--------|--8----8---8--8--------|---------------------------|
--11---11---11--11--------|--7--------------------|---------------------------|
---0----0----0---0--------|--------------7--------|---------------------------|
--------------------------|--7----7---7-----------|---------------------------|
--------------------------|-----------------------|---0---------0--L----------|

                                                                     *Da Coda
  E.  E.  E  Q    Q       E.  E.  E  E.  E.  E     E.  E.  E  Q    Q     
--3---2---0------------|--2---0-----------------|-----------------------|
--0----------3----2----|--0-------3--2---0------|-----------------------|
-------------0---------|----------2----------2--|--0--------------------|
-----------------------|------------------------|------4---2--0---------|
-------------0---------|------------------------|--2----------0----4----|
--2---2---2------------|--0-------0--L----------|--2---2---2------------|


  ^                       ^                       ^                     
  E.  S E  E  H           E.  S E  E  H           E.  S E  E  H         
-----------------------|-----------------------|-----------------------|
-----------------------|-----------------------|-----------------------|
--4--------------------|--2--------------------|--0--------------------|
--4--------------------|--2--------------------|--0--------------------|
--5--------------------|--4--------------------|--2--------------------|
--5---5----5--L--------|--4---4----4--L--------|--2---2----2--L--------|


  ^                       ^                       ^                     
  E.  S E  E  H           E.  S E  E  H           E.  S E  E  H         
-----------------------|-----------------------|-----------------------|
-----------------------|-----------------------|-----------------------|
-----------------------|--4--------------------|--2--------------------|
--4--------------------|--4--------------------|--2--------------------|
--0--------------------|--5--------------------|--4--------------------|
--0---0----0--L--------|--5---5----5--L--------|--4---4----4--L--------|

                                                            *D.S. al Coda
  ^                       ^                                                
  E.  S E  E  H           E.  S E  E  H           E.  S E  Q.     E  S  S  
-----------------------|-----------------------|--3---3----3--------------|
-----------------------|-----------------------|--3---3----3--------------|
--0--------------------|--1--------------------|--4---4----4---------0h-1-|
--0--------------------|--2--------------------|--------------------------|
--2--------------------|--4---4----4--2--------|--0---0----0--------------|
--2---2----2--0--------|-----------------------|--------------------------|


*Coda
  ^                                      
  W                                      
--2----------------|-------------------||
--2----------------|-------------------||
--2----------------|-------------------||
--0----------------|-------------------||
-------------------|-------------------||
-------------------|-------------------||




Duration Legend
---------------
W - whole
H - half
Q - quarter
E - 8th
S - 16th
. - note dotted


Tablature Legend
----------------
L - tied note
^ - brush up
v - brush down
Login or Register to remove this ad.

3 comments on A Date at the Beach

nice tab !

5

I didn't remind this one , it's definitly a cute tune. Ho I have (& I want) to watch this anime again :)

Thanks! I guess you don't

Thanks!
I guess you don't remember this one because it's not on the soundtrack of the movie,it's just on the Image Album ;D

Hidden gem

Lovely Joe Hisaishi piece that i dont think many people have even heard of.