Ads

Solo Menu (Kid Icarus: Uprising) Guitar Tab

Submitted: Jul 03, 2012 by hslesperance (Last updated: Oct 06, 2014)

0
Download | Listen
Game: Kid Icarus: Uprising
Composer(s): Motoi Sakuraba, Yasunori Mitsuda, Yuzo Koshiro, Noriyuki Iwadare, Masafumi Takada
Style: Transcription

AutoScroll: Slow | Medium | Fast
Solo Menu
Kid Icarus: Uprising
Composed by Motoi Sakuraba
Arranged by Natsumi Kameoka
Tabbed by hslesperance
7/3/12

Standard Tuning


I did three parts only for the intro.

  W               W              W               H          Q
|---------------|--------------|---------------|---------------|
|---------------|--------------|---------------|---------------|
|---------------|--------------|---------------|------------2--| Melody
|---------------|--------------|---------------|---------------|
|---------------|--------------|---------------|---------------|
|---------------|--------------|---------------|---------------|
|
|
| E  E E  E  Q    E  E E  E Q    E  E E  E  Q    E  E E  E  Q
|--------10-----|--------10-7--|--------10-----|--------10-----|
|-----------10--|------8-------|-----------10--|------8----10--|
|------7--------|----7---------|------7--------|----7----------|
|----7----------|--------------|----7----------|---------------|
|---------------|--------------|---------------|---------------|
|---------------|--------------|---------------|---------------|
|
|
| H.              H.             H.              H.
|-2-------------|-3------------|-2-------------|-3-------------|
|-3-------------|-3------------|-3-------------|-3-------------|
|-2-------------|-4------------|-2-------------|-4-------------|
|-0-------------|-5------------|-0-------------|-5-------------|
|---------------|--------------|---------------|---------------|
|---------------|--------------|---------------|---------------|


  H    E E   a H    S T T E   H.        H    Q
|------0-2-|-5p3----2-3p2p0-|-2-------|-2-------|
|-3--------|----------------|---------|------0--|
|----------|----------------|---------|---------|
|----------|----------------|---------|---------|
|----------|----------------|---------|---------|
|----------|----------------|---------|---------|


  a H    E E   a H    Q    H.        a H    Q
|-0h2----0-2-|-5p3----5--|-2-------|-3p2-------|
|------------|-----------|---------|-----------|
|------------|-----------|---------|--------2--|
|------------|-----------|---------|-----------|
|------------|-----------|---------|-----------|
|------------|-----------|---------|-----------|


  H    E E   a H    S T T E   H.        a H    Q
|------0-2-|-5p3----2-3p2p0-|-2-------|-0h2--------|
|-3--------|----------------|---------|--------0---|
|----------|----------------|---------|------------|
|----------|----------------|---------|------------|
|----------|----------------|---------|------------|
|----------|----------------|---------|------------|


  H    E E   a H    Q    H.        a Q  Q  Q
|-2----0-2-|-5p3----5--|-2-------|-3p2--3--5--|
|----------|-----------|---------|------------|
|----------|-----------|---------|------------|
|----------|-----------|---------|------------|
|----------|-----------|---------|------------|
|----------|-----------|---------|------------|


  Q.    E E E    Q.    E E E   Q.   E E E    Q.   S S S S  S  S
|-7----10-9-7-|--------------|------------|------------------10-|
|-------------|-10----10-8-7-|-8----8-7-8-|-10--------7-8-10----|
|-------------|--------------|------------|-------7-9-----------|
|-------------|--------------|------------|---------------------|
|-------------|--------------|------------|---------------------|
|-------------|--------------|------------|---------------------|


  Q.    E E E    Q.    E E E   H    E E   H    Q
|-7----10-9-7-|--------------|----------|----------|
|-------------|-10----10-8-7-|----------|-7--------|
|-------------|--------------|-9----7-9-|------2---|
|-------------|--------------|----------|----------|
|-------------|--------------|----------|----------|
|-------------|--------------|----------|----------|


  H    E E   H    E E   H.        H    Q
|------0-2-|-3----2-0-|---------|----------|
|-3--------|----------|-3-------|-3----0---|
|----------|----------|---------|----------|
|----------|----------|---------|----------|
|----------|----------|---------|----------|
|----------|----------|---------|----------|


  H    E E   H    Q    H.        Q  Q  Q
|-2----0-2-|-3----5--|-2-------|-2--3--5---|
|----------|---------|---------|-----------|
|----------|---------|---------|-----------|
|----------|---------|---------|-----------|
|----------|---------|---------|-----------|
|----------|---------|---------|-----------|


  Q.    E E E    Q.    E E E   Q.   E E E    H    Q
|-7----10-9-7-|--------------|------------|-----------|
|-------------|-10----10-8-7-|-8----8-7-8-|-10--------|
|-------------|--------------|------------|-------7---|
|-------------|--------------|------------|-----------|
|-------------|--------------|------------|-----------|
|-------------|--------------|------------|-----------|


  Q.    E E E    H    E E   H    E E   Q  Q   Q
|-7----10-9-7-|-----------|----------|------------|
|-------------|-10----8-7-|----------|-7--9--11---|
|-------------|-----------|-9----7-9-|------------|
|-------------|-----------|----------|------------|
|-------------|-----------|----------|------------|
|-------------|-----------|----------|------------|


  H     E E    Q.   Q.     H.        Q   Q  Q
|-7---------|------------|-7-------|-7----------|
|------11-9-|-11----7----|---------|----11--7---|
|-----------|------------|---------|------------|
|-----------|------------|---------|------------|
|-----------|------------|---------|------------|
|-----------|------------|---------|------------|


  H     E E    Q.   Q.     H.         a H.
|-7---------|------------|---------|----------|
|------11-9-|-11----7----|-9-------|-11p9-----|
|-----------|------------|---------|----------|
|-----------|------------|---------|----------|
|-----------|------------|---------|----------|
|-----------|------------|---------|----------|


  H     E E    Q.   Q.     H.        Q   Q  Q
|-7---------|------------|-7-------|-7----------|
|------11-9-|-11----7----|---------|----11--7---|
|-----------|------------|---------|------------|
|-----------|------------|---------|------------|
|-----------|------------|---------|------------|
|-----------|------------|---------|------------|


  H     E E    Q.   Q.     H.        H.
|-7---------|------------|---------|-------|
|------11-9-|-11----7----|-9-------|-9-----|
|-----------|------------|---------|-------|
|-----------|------------|---------|-------|
|-----------|------------|---------|-------|
|-----------|------------|---------|-------|


  Q.   E E E   E E E Q.     Q.   E E E   Q.   Q.
|------------|------------|------------|------------|
|-0----------|-0----------|-0----------|-2----------|
|------2-1---|---2-1------|------2-1---|------2-----|
|----------4-|-------4----|----------4-|------------|
|------------|------------|------------|------------|
|------------|------------|------------|------------|


  Q.    E E E   E  E E Q.     Q.    E E E    Q.    Q.
|-7-----------|-7-----------|-7-----------|-12----14-----|
|------10-9-7-|---10-9-7----|------10-9-7-|--------------|
|-------------|-------------|-------------|--------------|
|-------------|-------------|-------------|--------------|
|-------------|-------------|-------------|--------------|
|-------------|-------------|-------------|--------------|


  H    E E   Q.   Q.     H.        Q  Q  Q
|----------|-----------|---------|-----------|
|-0--------|-----------|-0-------|-0---------|
|------3-1-|-3---------|---------|----3------|
|----------|------4----|---------|-------4---|
|----------|-----------|---------|-----------|
|----------|-----------|---------|-----------|


  H    E E   Q.   Q.     H.        H.
|----------|-----------|---------|-------*|
|-0--------|-----------|---------|-------*|
|------3-1-|-3---------|-1-------|-1-----*|
|----------|------4----|---------|-------*|
|----------|-----------|---------|-------*|
|----------|-----------|---------|-------*|

h - hammer on
p - pull off

W - whole
H - half
Q - quarter
E - 8th
S - 16th
T - 32nd
a - acciaccatura
+ - note tied to previous
. - note dotted
Login or Register to remove this ad.