Ads

Tsuna Awakens (Katekyo Hitman Reborn!) Guitar Tab

Submitted: Sep 08, 2014 by Reiatsu0

5
Average: 5 (1 vote)
Download | Listen
Game: Katekyo Hitman Reborn!
Composer(s): Toshihiko Sahashi, Katsumi Nagaoka
Style: Transcription

AutoScroll: Slow | Medium | Fast
e|3---------------3--------------------------------------------------------------------|
B|1---------------1--------------------------------------------------------------------|
G|-------------------------------------------------------------------------------------|
D|-------------------------------1-0---------------1--------1-3-5--5-5-5--1-3-5--3-3-3-|
A|--3-3-3-3-3-3-3---3-3-3-3-3-3------3--3-3-3--3-3---3-3-3-----------------------------|
E|-------------------------------------------------------------------------------------|

e|-----------------------------------------------------------------------------------------|
B|-------------------------------------------------4-3---------------4--------4-6-8--8-8-8-|
G|-----------------------------------------------------5--5-5-5--5-5---5-5-5---------------|
D|-1-0---------------1--------1-3-5--5-5-5--1-3-5------------------------------------------|
A|-----3--3-3-3--3-3---3-3-3---------------------------------------------------------------|
E|-----------------------------------------------------------------------------------------|

e|---------------------------------------------------3--3/8--6.8.8--6.8.8-----|
B|-4-6-8--6-6-6--4-3---------------4--------4-6-8------------------------8.8.8|
G|-------------------5--5-5-5--5-5---5-5-5---------0--------------------------|(. is half - in time)
D|----------------------------------------------------------------------------|
A|----------------------------------------------------------------------------|
E|----------------------------------------------------------------------------|

e|10-----11-13-11-10-8--6.8.8--6.8.11.10.8.6.8--6.8.11.10.8.6.8--8--6.8.8--|
B|--8.8.8------------------------------------------------------------------|
G|-------------------------------------------------------------------------|
D|-------------------------------------------------------------------------|
A|-------------------------------------------------------------------------|
E|-------------------------------------------------------------------------|

e|6.8.8-----10-----11-13-11-10-8--6.8.8--6.8.11.10.8.6.8.-6.8.6--------------------|
B|-----8.8.8--8.8.8--------------------------------------8-----8.6.8.6-------------|
G|--------------------------------------------------------------------8.7.5--5-5-5-|
D|---------------------------------------------------------------------------------|
A|---------------------------------------------------------------------------------|
E|---------------------------------------------------------------------------------|

e|---------------8-8-8--8-8-8--8-8-11--8-8-8-----------------------------|
B|-----------------------------------------------------------------------|
G|-5-5-8--5-5-5-------------------------------1-0---------------1--------|
D|------------------------------------------------3--3-3-3--3-3---3-3-3--|
A|-----------------------------------------------------------------------|
E|-----------------------------------------------------------------------|

e|---------------------------------------------------------------------------|
B|---------------------------------------------------------------------------|
G|1-3-5--5-5-5--1-3-5--3-3-3--1-0---------------1--------1-3-5--5-5-5--1-3-5-|
D|--------------------------------3--3-3-3--3-3---3-3-3----------------------|
A|---------------------------------------------------------------------------|
E|---------------------------------------------------------------------------|

e|---4-3---------------4--------4-6-8--8-8-8--4-6-8--6-6-6--4-3--------------4|
B|-------6--6-6-6--6-6---6-6-6----------------------------------6--6-6-6--6-6-|
G|----------------------------------------------------------------------------|
D|----------------------------------------------------------------------------|
A|----------------------------------------------------------------------------|
E|----------------------------------------------------------------------------|

e|--------4-6-8-------8/13--11.13.13--11.13.13--------15--------16-18-16-15-13|
B|-6-6-6--------------------------------------13.13.13--13.13.13--------------|
G|----------------------------------------------------------------------------|
D|----------------------------------------------------------------------------|
A|----------------------------------------------------------------------------|
E|----------------------------------------------------------------------------|

e|--11.13.13--11.13.16.15.13.11.13--11.13.16.15.13.11.13---13--11.13.13--|
B|-----------------------------------------------------------------------|
G|-----------------------------------------------------------------------|
D|-----------------------------------------------------------------------|
A|-----------------------------------------------------------------------|
E|-----------------------------------------------------------------------|

e|11.13.13--------15--------16-18-16-15-13--11.13.13--11.13.16.15.13.11.13--|
B|--------13.13.13--13.13.13------------------------------------------------|
G|--------------------------------------------------------------------------|
D|--------------------------------------------------------------------------|
A|--------------------------------------------------------------------------|
E|--------------------------------------------------------------------------|

e|--11.13.11.8.6.8.6---------------------------------------------------8-8-8--8-8-8--|
B|13----------------9.8.6------------------------------------------------------------|
G|-------------------------10-10-10--5-5-5--5-5-5--10-10-10--10-10-10----------------|
D|-----------------------------------------------------------------------------------|
A|-----------------------------------------------------------------------------------|
E|-----------------------------------------------------------------------------------|

e|13-13-13--13-13-13--13-13-13--13-13-13--11-13-13------|
B|------------------------------------------------------|
G|------------------------------------------------------|
D|------------------------------------------------------|
A|------------------------------------------------------|
E|------------------------------------------------------|
Login or Register to remove this ad.