Ads

Wiosna (Katawa Shoujo) Guitar Tab

Submitted: Feb 22, 2013 by Uminari

5
Average: 5 (4 votes)
Download | Listen
Game: Katawa Shoujo
Composer(s): Blue123, Nicol Armarfi
Style: Arrangement, Fingerstyle, Natural harmonics

This song is also called Title Screen

AutoScroll: Slow | Medium | Fast
                              Wiosna (Main Menu)                                

Tuning: Open D
Tempo: 80 BPM

You can play the harmonics as regular notes if have a cutaway / are comfortable 
going that high up the fretboard. You may also try an Open E tuning, which allows 
moving the capo down 2 frets while maintaining the original key.


Solo Guitar (Capo 4)
               ^                                     
      H        E  E  E   E     Q    Q.     E  E  E   
D ||--7--------7--5---------|-------7------5--7--7--|
A ||--5--------5-----8---5--|-----------------------|
F#||------------------------|--7-----------------L--|
D ||-----------7---------L--|--7-----------------L--|
A ||---------------------L--|--------------L--------|
D ||---------------------L--|-----------------------|


     NH    NH    NH         NH    NH    NH  
     E     E     Q    E     E     E     E   
--<>12-------------------<>12--------------|
--------<>12-------------------<>13-----L--|
--------------<>12----1--------------<>13--|
-----0-----------L----------------------L--|
-------------------------------------------|
-----------------L-------------------------|


     NH      NH                                                
                  |--3--|                                      
     Q       Q    T  T  T T T  E  E  E     H        Q.     E   
------------------5h-7p-5---5h-8--7-----|--3--------2------0--|
--------------------------8----------7--|--0------------------|
----------------------------------------|---------------------|
--<>15----<>14--------------------------|--3--------2---------|
----------------------------------------|---------------------|
----------------------------------------|---------------------|


  E  E  E  E  E  E  E  E     E  E  E  E  E  E  E  E   
--0--------------------L--|--------------------------|
--------------0-----------|--------------0-----------|
--------0--------0--------|--------0--------0--------|
-----------0--------0-----|-----------0--------0-----|
-----0-----------------0--|-----0-----------------0--|
--0-----------------------|--0-----------------------|


  Accentuate the melody                                                   
  ^                       >    >  >                             >  >  >   
  E                     S E  S E  E  E  E  E     E  E  E  E  E  E  E  E   
----------------------------------------------|-----------------0--------|
----------------------------------0-----------|--------------0-----4--0--|
-------------------------------0-----0--------|--------0--------0--------|
--0-----------------------2-------------0-----|-----------0--------0-----|
------------------------0----0-------------0--|-----0-----------------0--|
--0-------------------------------------------|--0-----------------------|


  >                 >        >  >           >  >  >   
  E  E  E  E  E  E  E  E     E  E   E  Q    E  E  E   
--------------------------|--------------------------|
--------------2-----0-----|------------2-------------|
--0--------0-----0-----1--|--0-----------------------|
--------------------------|-----0---L-------0--2-----|
--2-----2--------------2--|-----------------------4--|
-----4--------------4-----|--5---------L-------------|


  >                                                   
  E  E  E  E  E  E  E  E     E  E  E  E  E  E  E  E   
--------------------------|--------------------------|
--------------0-----------|--------------0-----------|
--------0--------0--------|--------0--------0--------|
--0--------0--------0-----|-----------0--------0-----|
-----0-----------------0--|-----0-----------------0--|
--0-----------------------|--0-----------------------|


  ^    >    >  >                       >  >  >  >      
  E  S E  S E  E  E  E  E     E  E  E  E  E  E  E  E   
---------------------------|-----------0--------------|
---------------0-----------|--------------2-----------|
------------0-----0--------|--------0--------0--------|
--0----2-------------0-----|-----------0--------0-----|
-----0----0-------------0--|-----0-----------------0--|
--0------------------------|--0-----------------------|


                                      > > >   >   >   
  E  E  E  E  E  E  E  E     E  E  E  S S E.  E.  E   
--------------------------|--------------------------|
-----------2--------------|--------------------------|
--------0-----0-----------|-----------0-1-1---0------|
-----------------0--------|-----------------------2--|
-----2--------------2-----|--4-----0--4--------------|
--4--------------------4--|--5--0--------------------|


  ^                          >                        
  E  E  E  E  E  E  E  E     E  E  E  E  E  E  E  E   
--------------------------|--------------------------|
--------------0-----------|--------------------------|
--0--------------0--------|--------------1-----------|
--------0-----------0-----|--2--------2-----2--------|
-----0-----0-----------0--|--0-----0-----------0-----|
--0-----------------------|-----2-----------------2--|


                                                        Slow down           
  ^                                                                         
  E  E  E  E  E  E  E  E     E  E  E  E  E  E  E  E     H         H         
--------------------------|--------------------------|---------------------|
--------------0-----------|--------------0-----------|---------------------|
--------0--------0--------|--------0--------0--------|------------0--------|
--0--------0--------0-----|-----------0--------0-----|------------0--------|
-----0-----------------0--|-----0-----------------0--|---------------------|
--0-----------------------|--0-----------------------|--0------------------|


  ^                  
  W                  
-------------------||
-------------------||
-------------------||
--2----------------||
-------------------||
--2----------------||




Duration Legend
---------------
W - whole
H - half
Q - quarter
E - 8th
S - 16th
T - 32nd
. - note dotted
|-n-|  - n-tuplets


Tablature Legend
----------------
L - tied note
> - accentuded note
NH - natural harmonic
h - hammer on
p - pull off
^ - brush up
Login or Register to remove this ad.

1 comment on Wiosna

Wow, this is an amazing

5

Wow, this is an amazing arrangement. Thanks man!