Ads

Raindrops and Puddles (Piano Impovisation) (Katawa Shoujo) Guitar Tab

Submitted: Oct 08, 2019 by Tortoise (Last updated: Nov 09, 2019)

5
Average: 5 (1 vote)
Download | Listen
Game: Katawa Shoujo
Composer(s): Blue123, Nicol Armarfi
Style: Arrangement, Artificial harmonics, Fingerstyle, Transcription

Click here for a video example.

AutoScroll: Slow | Medium | Fast
 Katawa Shoujo
Raindrops and Puddles (Piano Improvisation) - written by NicolArmarfi 
Arranged for Guitar by Michael Achilles (Tortoise)
10-1-19


Standard Tuning
Tempo: Quarter = 80
4/4 Timing (aside from a few measures as noted)

***Note: This is not the same as the original Soundtrack, but is based on a Piano Version from Youtube.***

To play the original song (though slightly different):
Play Measures 16 through 54 and then play measures 20 through 28 again.


1  E E E E Q   E E     E  E E E  Q  Q    T T S E E E Q  Q      E E Q   Q  Q
|-^7-------7-------|-------------------|-5h7p5-------------|------------------|
|-^8-8---8-8--10-8-|-^12--8---8-12-----|-------8-5---5--8--|------------------|
|-^9---9---9-------|-^-9----9----9-----|-------7---7----7--|-^-7--------------|
|-^7---------------|-----10-----10-----|-5-----------------|-^10-9-7--10--7---|
|------------------|-^-8------------8--|-------------------|-^-0--------------|
|------------------|-------------------|-------------------|------------------|


5   E  E E E  Q  Q    E E E E Q  Q     E E E E  E E E E    E E E E Q  Q
|-------------------|-7-5-----5-----|-^5----------------|-^5-------------|
|-^12--8---8-12-----|-----5-8-8-----|-^5-8-5-8-^5-----5-|-^5---5------5--|
|-^-9----9----9-----|---7-----7-----|-^5-------^5-5-7---|-^6-----6-7-----|
|-----10-----10-----|-5----------5--|-^5-------^5-------|-^7-7-----------|
|-^-8------------8--|---------------|-^7-------^7-------|----------------|
|-------------------|---------------|-^5-------^5-------|----------------|


9 H    E E Q    E E E E Q  Q    E E E E Q  Q    E E E E Q  E E
|------7---7--|-3----------7--|-7---7---7-----|-7---7-5-3----5-|
|------5---5--|---------1--5--|-5---5---------|-5----------5---|
|--------0----|-2---0---------|-----4-0-7--7--|-----5---2--2---|
|-------------|-------3-------|---0-----------|-5--------------|
|------3------|---3-----------|---------------|---7------------|
|-------------|-1-------------|-3-------------|-5--------------|


                     art. harmonics (or play open string)
13 H    E E E S. T     E  E   E  E   Q     Q     E E E E Q  E E
|-----------0-3--0-|---------------------------|---------7--7---|
|---------1--------|-<12>---<12>---<12>--<12>--|---------0--6---|
|------------------|----------0----------------|-------2------4-|
|------------------|-------------3-------------|---0-5----------|
|--0----0----------|------3--------------------|----------------|
|------------------|---1-----------------------|-3--------------|


***Start here for the original version of "Raindrops and Puddles" 

16 E E E E E E E E   H    E E E E   E E Q  E E E E   H    E E E E
|------0---0-------|--------------|-----0--0-------|--------------|
|------0---0-----0-|--------------|-----0--0---0---|--------------|
|----0---0-----0---|-2------0---0-|---0------0---0-|-2------0---0-|
|------------2-----|-3--------0---|----------------|-3--------0---|
|--3---------------|-3------------|-3--------------|-3------------|
|------------------|-1------------|----------------|-1------------|


20 E  E  E  E  E  E  E  E    E E E E E E E E
|--8----10-12-10----------|------0---0---0---|
|----------------12-10-12-|-13---0---0---0---|
|-------10----------------|----0---0---0---0-|
|----10----------12-------|------------------|
|--8----------10----------|------------------|
|-------------------------|--8---------------|


22 E  E  E  E  E  E  E  E   E E E E E E E E
|--8----10-12-10----------|-8---------------|
|-10-----8----12----13-12-|-5---------------|
|-------------------10----|-----5---5---5---|
|----10----------12-------|-----7---7---7---|
|--8----------10----------|---7---7---7---7-|
|-------------------------|-5---------------|


24 E  E  E  E  T  T  S  E  E S S   E E E E E E E E
|--8----10-12-10h12p10---------8-|-8---------------|
|----------------------13-12-----|-5---------------|
|-------10-------------------0---|-----5---5---5---|
|----10----------------12--------|-----7---7---7---|
|--8----------10-----------------|---7---7---7---7-|
|--------------------------------|-5---------------|


26 E  E  E  E  E  E  E.  S    E E E E E E E E
|--8----10-12-10-----------|------0---0--------|
|-------------------13--12-|-13---0---0-----0--|
|-------10----------10-----|----0---0-----0----|
|----10----------12--------|-------------------|
|--8----------10-----------|------------7------|
|--------------------------|--8----------------|


28 H    E E E E   E E E E E E E E   H    E E E E   E E E E E E E E
|---------------|-----0---0-------|--------3---3-|-3---8-6-----6-8-|
|---------------|-----0---0---0---|----------3---|-6-6-------8-----|
|--2------0---0-|---0---0---0---0-|-2------------|-3-------8-------|
|--3--------0---|-----------------|-3------------|-6-------8-------|
|--3------------|-3---------------|-3------------|---------6-------|
|--1------------|-----------------|-1------------|-----------------|


32  H        T   E..     Q       E E E E E E E E   E E E E E E E E
|-^13------^10--15-------------|-------0---------|-----------------|
|-^11------^12-----------------|-1---3---3-0---0-|-1---------------|
|-^12------^-0-----------------|-2---2---0---2---|-0---0---2---2---|
|----------------------<12>----|-----------0-5---|-2-2---2---2---2-|
|------------------------------|---3-------------|-0---------------|
|-^11--------------------------|-1-------3-------|-----------------|


36 E  E  E  E  E  E E E    E E E E E E E E
|--8----10-12-------8-7-|-^8---------------|
|-10----10--------------|-^5---------------|
|-----------------------|-^5---5---5---5---|
|----10-------<5>---6---|------5---5---5---|
|--8--------------5-----|----7---7---7---7-|
|--------------4--------|-^5---------------|


38 E  E  E  E  T  T  S  E  E  E    S  S S  S  E  E  E  E  E  E
|--8----10-12-10h12p10----------|---------------15-13----12----|
|-------------------------13-12-|-12h13---12h13-------------13-|
|-------------------------------|-------0----------------------|
|----10----------------12-------|---------------------10-------|
|--8----------10----------------|--0----------------0----------|
|-------------------------------|------------------------------|


40  E E E. S E E E E   E E E E E E E E
|--------------------|-----------------|
|---1------0-0---0-1-|-1---------------|
|---2---2--------0---|---0---0---0---0-|
|-------3------0-----|-2---------------|
|-----3--------------|-3---3---3---3---|
|---1--------3-------|-----------------|


42 S S S S E  E  S S S S E  E    E  S S E  E E E E E
|--5p3-5p3-------------3-------|-8-------------------|
|----------5-----5p3-5---------|---10p8--------------|
|------------------------5-----|--------9----5-------|
|------5------5------5------5--|----------12-5-------|
|--3-------3-----3-------3-----|---10-----10---7---7-|
|------------------------------|-8------8----5---5---|


44 S S S S E S S S S E  E   E    S S S S E E S S S S E E
|------------------5-8-10-<12>-|-5p3-5p3-----------3-----|
|------------5-8---------------|---------5---5p3-5-------|
|--------5-7-------------------|---------------------5---|
|----5-7-----------------------|-----5-----5-----5-----5-|
|------7-----7-------7--0------|-3-------3---3-------3---|
|--5-------5-----5-------------|-------------------------|


  |---3---| |---3---|
  E  S  S E E S  S  E E  E E  E
|-8-------------------8----------|
|---10----8---8----10------------|
|-----------9--------------------|
|--------------------------------|
|------10-------10------10---10--|
|-8---------8---------8----8-----|


47 E  E E  E E  E  E  E     E  E  E  E  E E  E E   E E E S S E E E E
|-----------------------|-^-8-------10-10---15---|-3------------------|
|-----------------10----|-^10-------------0-12-0-|-----5-3h5----------|
|------------9----------|-^10----10-----0--------|-----4---------4----|
|-----------------------|-----10-----------------|---5---5-----5---5--|
|----10---10---10----10-|-^-8--------------------|-3---------3--------|
|--8----8----8-----8----|------------------------|--------------------|


50 E S S E E E E E S S   E E  E E  E E E E
|----5-----------------|-------------------|
|--8---------4-3-1-3p1-|-------------------|
|------5---------1-----|-----^0---^2---0---|
|----------------0-----|---2-^2-2-^2-2---2-|
|----7-----7---2---2---|-0-----------------|
|--5-----5---0---------|-------------------|


52 E E E S S E E E E   E E E E E E E E
|----------0---------|-0-3-3-0----------|
|--1-----3---3---0-1-|-----1---3---1----|
|--2---2---------0---|-----2---2---2----|
|------3-------0-----|---2-------2---2--|
|----3---------------|-0-------0--------|
|--1---------3-------|------------------|

  
                      *When playing the original version
                      *Go back to measure 16 here (after measure 54)
54 E E E S S E E E S S * E E E E S S S S E S S   S S E E S  S S S S S E E
|----------------------|-----0---0-------0---0-|---0---0--------8---8-----|
|--------3p1-0-------1-|-1---0---0-------0-----|-------0-8h10-------------|
|--2-------------0-----|---0---0-------4-5-7---|-----0---0----------------|
|------3-------0---0---|-----------5h7---------|----------------------7---|
|----3---3-------------|-3---------------------|--------------0---7-----7-|
|--1---------3---------|-----------------------|-8------------------------|


   E  S  S S S  S S S S E E E
|-----------------0---8---8---|
|-12-10S12---8----------------|
|--9----------------------5---|
|----10--------10---------5---|
|--8-------8------------7---7-|
|-------------------5---------|


   S  S S S S  S S S S  S S  S S  S S  S   S S E E E Q  E E
|-12-10---8------------------------------|---0----------3-5---|
|-------------10---8---10----------------|-------3-1-1--5-3---|
|----------------------------------------|-------0---2--5-5---|
|---------------------------12---10---12-|-------0---2--------|
|--8--------8--------8---------8---------|-----2-----0--------|
|-------8--------8--------8---------8----|-3------------------|


                                                     |-3-|
  E S S E E S S E E S S   S  S E E  S S S  S S S S S S S S
|-5---5-----5S7---7---7-|----8--------8---10p8---0---------|
|-----------3-----3-----|---10-----10----------8-----------|
|-5---5-----------------|----9------9--------------0-1h2h3-|
|-3-----3---------5-----|--------7-------------------2-----|
|---3-----3-----5---5---|-0----7----7---0--------0---------|
|-----------3-----------|----------------------------------|


  E S S E S S E S S S S E
|-----0-----0--------------|
|-1---1---1-------3p1------|
|-0-------0-----2-------2--|
|-------2-------------3----|
|---3-----------3----------|
|-1-----------1------------|


Slow down over 2 measures
  E  S  S E S S S S S S S S E   E E E E E E  Q
|---------------------------0-|-4---5---7---10--|
|-3-----3-------------0h3h4-3-|-3-3-3-3-9-9--9--|
|-0-----1---------0h1-------4-|-4---4---7----7--|
|-3-----3-0---0h3-------------|---------9-------|
|----2------------------------|-----------------|
|-3-(3)-----4-----------------|-----------------|


Original Tempo
   Q   E  E  E  E  E  E    E  E  E  E E E E E
|--8--10-12-10----------|--8-------------------|
|-10--10-------12-10-12-|--8-----8-------------|
|--9--------12----12----|-10----10--------4----|
|-----------12----------|----10----10-----5----|
|--0--------10----------|--8------------5---5--|
|-----------------------|-------------3--------|


  E E E E T T S E E E   S S S S E S S E E E E
|-------0-------------|-----------3p0---------|
|-1---3---3h5p3---1-0-|-0h1---0h1-----3---1---|
|-----2-----------0---|---------2-----2---2---|
|-----3---------0-----|-----2-----2-----2---2-|
|---3-----------------|-0-------------0-------|
|-1-------3-----------|-----------------------|


  E  E  E  E  E  S  S  E  E    E E   E  E  E   E   E E
|-8----10-12-10-------------|------^15-13-12------10-8-|
|---------------13-12----13-|-13---^13-----------------|
|------10-------------10----|----0-^14-----------------|
|---10----------12----------|----------------------7---|
|-8----------10-------------|--0-----------0-----------|
|---------------------------|----------------<12>------|


  E S S E E E S S E E   S S S S E S S S S E E E   S S S S E S S S S S S E E
|-3---5-----5---7---7-|-7-8---7-8-7-8---7-8-7-8-|-----------------5-3-0-----|
|-----------------0---|-------------------------|-0-1---0-1-0-1---------3-1-|
|-------2-------------|---------5-----------5---|---------2-------------2---|
|-------------0-----0-|---------5-----------5---|---------------------------|
|---3-----3-----------|-----7-----7-------7---7-|-----3-----3-------3-------|
|-1---------3---------|-5-------------5---------|-1-------------1-----------|


                           6/4
  E E S S S S E S S S S E   E E S S S S S S S S S S E E E E E
|-------------------------|-------------0h3---5-----0-------0--|
|-0-1-0-1-----0-----------|-------1-3-4-----------3------------|
|-----0-----2---0-2-----0-|-----2---------------4---0-----2----|
|---0-----0-----2-----2---|-----------------2-----------2------|
|-------------0-----0-----|---3-----------------------0--------|
|-3-----------------------|-1-----------3----------------------|


    E  S  S  E  E  E  E  E. S  S S S S S S E
|-^-8-----8----10-----------8-^8-7---8---7---|
|-^10----10----12----13-12----^5-----5-----8-|
|-^10-------10----------10----^5-------5-----|
|-----10-------------12----------------------|
|-^-8-------------10---------------7-------7-|
|-----------------------------^5-------------|


   E   E   S  S  S  S  S  S  S  S  E  S  S S S S S E E
|-15------12p10----------10--------------------5--------|
|-13------10-------13----------12-13-10-12---8-------5--|
|-14------------10----12-------------------------5-7----|
|---------------------------12-------12------------7----|
|----<12>-------------10----------10-----------7--------|
|------------------------------------------5------------|


 4/4
   E E  E E  E S  S  S  S  S S
|--8-------------------------8-|
|-10----------------------10---|
|-10-------------------10------|
|-10--------10------10---------|
|--8---12-8----8-12------------|
|----8-------------------------|


   E  E  E  E  E  S  S  S  S  S  S      E  E  E E E E E E
|-13-------------------------10h13-|-^-15-------------0---|
|-12----------------------12-------|-^--0---------8---0---|
|-10-------------------10----------|-^<12>--------9---0---|
|-12----------12----12-------------|--------------9-------|
|-10----14-10----10----------------|---------10-7---7---7-|
|----10----------------------------|-^--0--7--------------|


  Slow down over 6 measures    
  E E E E E E E E   E E E E E E E E    E E  E E  E E  E E    E E E E  E E E E
|-----------------|-----0---3---7---|-10-0----0-10-0----0-|-10-0-7-0-10-0-7-0-|
|-3---0---3---0---|-3-----3---5---8-|--8---12----8---12---|--8---8----8---8---|
|-0-------0---0-0-|---5-4---5---9---|------12--------12---|-----------0-------|
|-2---2-----2-----|-5---------------|---------------------|---------------7---|
|-3-----3---------|-----------------|---------------------|------7------------|
|---3-------------|-----------------|--8---------8--------|--8----------------|



   E E  E E  E E  E E    W
|--7----7----7---10---|-------|
|--8----8----8----8---|-12----|
|----9----9----9----9-|-12----|
|-10---10---10---10---|-10----|
|---------------------|-------|
|---------------------|-------|


original tempo
  E E E E E E E E   T T S E E E E E E E   E E E E E E Q    T T S E E E E E E E
|-7-5-3---7---5---|-3h5p3---------------|-7-3---3-7---5--|-3h5p3-0---0-0-3---0-|
|-5-----5-5-------|-------5-3-5---------|-5---5---5------|---------1-------3---|
|-5-------5---2-4-|---------2-------0-2-|-5-------5------|-----------2---------|
|-----------2-----|-3-------------2-----|-------------7--|---------3-----------|
|-3-------0-------|-------------0-------|-3---------7----|-------3-------------|
|-----------------|---------------------|---------5------|-1-------------------|


   Q   Q  Q   Q    Q  Q   Q   Q     H     E E  Q    E E E E E E E E
|-10------8------|-7-------------|-10-------------|-----------------|
|-----12-----10--|-6--8--10------|-------12-9-----|-----------------|
|---------9------|-----------10--|------------10--|-7---------------|
|-10-------------|---------------|----------------|---9-6-----------|
|----------------|---------------|----------------|-------8-5-------|
|----------------|---------------|----------------|-----------7-4-1-|


  Q  E E Q  E E   E E E E E E Q     W          H    Q   S  S  E
|---------------|-------------8--|-10--------|-------------------|
|---------------|---------6-9----|-----------|------------10-13--|
|---------------|-----5-7--------|-----------|---------12--------|
|--------3------|-3-6------------|-----------|-------------------|
|----3-5----3-5-|----------------|-----------|-------------------|
|-4-------------|----------------|-----------|-------------------|


   H.       E  E    W
|-12-------------|-15----|
|--8----------15-|-------|
|----------------|-------|
|----------14----|-------|
|----------------|-------|
|--8-------------|-------|




Duration Legend
---------------
W - whole; H - half; Q - quarter; E - 8th; S - 16th; T - 32nd; X - 64th; a - acciaccatura
+ - note tied to previous; . - note dotted; .. - note double dotted

Irregular groupings are notated above the duration line


Tablature Legend
----------------
 h   - hammer-on
 p   - pull-off
 /\  - slide into or out of (from/to "nowhere")
 s   - legato slide
 S   - shift slide
  - natural harmonic
[n]  - artificial harmonic

Misc Legend
-----------
 |  - bar
||  - double bar
||o - repeat start
o|| - repeat end


***************************************************************************************
* Generated using Power Tab Editor by Brad Larsen - http://powertab.guitarnetwork.org *
***************************************************************************************
Login or Register to remove this ad.