Ads

Painful History (Katawa Shoujo) Guitar Tab

Submitted: Aug 22, 2013 by Basisti94

5
Average: 5 (4 votes)
Download | Listen
Game: Katawa Shoujo
Composer(s): Blue123, Nicol Armarfi
Style: Arrangement, Fingerstyle

AutoScroll: Slow | Medium | Fast
                            Painful History
                                
Katawa Shoujo
NicolArmarfi  
Guitar arrangement by Basisti94 (Miro Laaksonen)
20.8.2013

Someone called this Hanako's theme and I was like "arranging time!"


Tune down 1/2 step (for original key)
Tempo ~ 80

      E  E  Q    Q    Q       W                   E  E  E  E  E  E  Q     
D#||--5-----0--------------|-------------------|--5----------------------|
A#||-------------3----1----|--L----------------|--------5-----3-----5----|
F#||-----2-----------------|-------------------|-----2-------------------|
C#||-----------------------|-------------------|-----------2-----2-------|
G#||-----------------------|-------------------|--0----------------------|
D#||-----------------------|-------------------|-------------------------|


  W                   Q    S E.  E  E  E  E     E  E  Q    H         
-------------------|--5----7-8---7--3-----3--|--5----------3--------|
--L----------------|-------------------6-----|--------5-------------|
-------------------|-------------0-----------|----------------------|
-------------------|--3----------------------|-----2----------------|
-------------------|-------------------------|--0-------------------|
-------------------|-------------------------|----------------------|


  Q    S E.  E  S S E   E      E.   E.  H        T   T  T  T  
--5----7-8---7----8-7--12--|--10---12---8--------8h-10p-8p-7-|
----------------8----------|---------------------------------|
-------------0-------------|---------------------------------|
--3------------------------|---------------------------------|
---------------------------|------------0--------------------|
---------------------------|---0-----------------------------|


  Q    S E.  E  E  E  E     E  E  E  E  Q    Q       E  E  E  E  E  E  E  E   
--5----7-8---7--3-----3--|--5--------0--3---------|--------------------3-----|
-------------------6-----|--------0----------0----|--------0--1--3--------0--|
-------------0-----------|------------------------|--2-----------------0-----|
--3----------------------|-----2------------------|--------3--------0--------|
-------------------------|--0---------------------|-----3--------------------|
-------------------------|-------------------3----|--1-----------3-----------|

 rall.                   Tempo ~ 72
  E  E  E  E  H           E  E  E  E  E  E  E  E     E  E  E  E  E  E  E  E   
--5-----------5--------|--------------3-----------|--------------------------|
-----------5-----------|--------0--1-----0--1-----|--------------1-----------|
--------4--------------|--------------------------|--------0--2--------2-----|
-----2-----------------|-----2-----------------2--|-----------------3--------|
--0--------------------|--0-----------------------|-----3-----------------3--|
-----------------------|--------------------------|--1-----------------------|


  E  E  E  E  E  E  E  E     E  E  E  E  E  E  E  E   
--------------3-----------|--------------------------|
--------0--1-----0--1-----|--------------1-----------|
--------------------------|--------0--2--------2-----|
-----2-----------------2--|-----------------3--------|
--0-----------------------|-----3-----------------3--|
--------------------------|--1-----------------------|


  E  E  E  E  E  E  E  E     E  E  E  E  E  E  E  E   
--------------------------|--------------3-----------|
--------0--1--0-----------|--------0--1-----0--1-----|
--2--------------0-----0--|--2-----------------------|
--------------------3-----|-----2--2--------------2--|
-----3--------------------|--0-----------------------|
--1-----------3-----------|--------------------------|


  E  E  E  E  E  E  E  E     E  E  E  E  E  E  E  E   
--------------------------|--------3--1--0--1--3--0--|
--------0--1--0-----1-----|--3-----------------------|
--2-----------------------|--------------------------|
-----------------0-----0--|-----0--------------------|
-----3--------------------|--------------3-----------|
--1-----------3-----------|--3-----------------------|


  E  E  E  E  E  E  E  E     E  E  E  E  E  E  E  E   
--------------------------|--------------3-----------|
--------0--1--0-----------|--------0--1-----0--1-----|
--2--------------0-----0--|--2-----------------------|
--------------------3-----|-----2--2--------------2--|
-----3--------------------|--0-----------------------|
--1-----------3-----------|--------------------------|


  E  E  E  E  E  E  E  E     E  E  E  E  E  E  E  E   
--------------------------|--------------3-----------|
--1-----3--1--0-----------|--1-----0--1-----0--1-----|
--2-----------------2--0--|--2-----------------------|
-----------------0--------|-----2-----------------2--|
-----3--------------------|--0-----------------------|
--1-----------3-----------|--------------------------|


  E  E  E  E  E  E  E  E     E  E  E  E  E  E  E  E   
--------------------------|--------------3-----------|
--------0--1--0-----------|--------0--1-----0--1-----|
--2-----0--2--0--0-----0--|--2-----------------------|
--3--------------0--3--0--|-----2--2--------------2--|
-----3--------------------|--0-----------------------|
--1-----------3-----------|--------------------------|


  E  E  E  E  E  E  E  E     E  E  E  E  E  E  E  E   
--------------------------|--------3--1--0--1--3-----|
--------0--1--0-----1-----|--3-----0--------------1--|
--2-----0--2--0-----2-----|-----------------------0--|
--3--------------0-----0--|-----0-----0--------------|
-----3--------------------|--------------3-----------|
--1-----------3-----------|--3-----------------------|


  E  E  E  E  E  E  E  E     E  E  E  E  E  E  E  E   
--------------------------|--------------3-----------|
--------0--1--0-----------|--------0--1-----0--1-----|
--2-----0--2--0--0-----0--|--2-----------------------|
--3--------------0--3--0--|-----2--2--------------2--|
-----3--------------------|--0-----------------------|
--1-----------3-----------|--------------------------|


  E  E  E  E  E  E  E  E     E  E  E  E  E  E  E  E   
--------------------------|--------------3-----------|
--------0--1--0-----------|--------0--1-----0--1-----|
--2-----0--2--0-----2--0--|--2-----------------------|
-----------------0-----0--|-----2-----------------2--|
-----3--------------------|--0-----------------------|
--1-----------3-----------|--------------------------|


  E  E  E  E  E  E  E  E     E  E  E  E  E  E  E  E   
--------------------------|--0--1--0-----0--0--0--5--|
--------0--1--0-----------|-----------3--------------|
--2-----0--2--1-----1-----|-----------------2--2-----|
--------------2--2--------|--------------------------|
-----3-----------------2--|--0-----------0-----------|
--1-----------0-----------|--------------------------|


  E  E  E  E  E  E  E  E     E  E  E  E  E  E  E  E   
--0-----0--1--------------|--4--1--0-----0-----------|
-----------1--3-----0-----|-----------3-----------0--|
--------0--------------0--|--------------------2-----|
-----2--------------0-----|-----------------2--------|
--3--------------0--------|--------------0-----------|
--------------3-----------|--0-----------------------|


  E  E  E  E  E  E  E  E     E  S  S E  E  E  E  E  E   
--------------------------|----------------------------|
--1--------3--0-----------|--0--1p-0----1--1--0--------|
--------0--2--------0-----|----------2-----2-----2-----|
-----------------0-----0--|-----2-------------------2--|
-----3--------------------|--0-------------------------|
--1-----------3-----------|----------------------------|

              rall.					         Tempo ~ 72
  E  E  E  E  E  E  E  E     E  E  E  E  E  E  E  E     H        Q    S S S S  
--------------------------|--1--------1--4-----7-----|--L---------------------|
--------------------------|--1-----------------------|------------------0-1-3-|
--2--------2--1--------1--|-----------2--------------|----------------2-------|
--------3-----------2-----|--------3--------------6--|--L---------------------|
-----3-----------2--------|-----3-----------2--7-----|------------------------|
--1-----------0-----------|--1-----------0-----------|------------------------|


                                                                          ^     
  E  E  E  E  E  E  E  E     E  E  E  E  E  E  E  E     E  E  E  E  E  E  Q     
--------5-----3-----0-----|--1-----0-----0-----------|--------------0-----5----|
--5-----------------------|-----------3--------1-----|--------1--------1--5----|
-----2-----2-----2-----2--|-----2-----------2-----2--|--2--------2--------5----|
--------------------------|--------------------------|-----2-------------------|
--0-----------------------|--------------------------|--0----------------------|
--------------3-----------|--1-----------0-----------|-------------------------|


  W                  
--L----------------||
--L----------------||
--L----------------||
-------------------||
-------------------||
-------------------||




Duration Legend
---------------
W - whole
H - half
Q - quarter
E - 8th
S - 16th
T - 32nd
X - 64th
. - note dotted
|-n-|  - n-tuplets


Tablature Legend
----------------
rall. - gradually decrease tempo
L - tied note
x - dead note
g - grace note
(n) - ghost note
> - accentuded note
NH - natural harmonic
AH - artificial harmonic
TH - tapped harmonic
SH - semi harmonic
PH - pitch harmonic
h - hammer on
p - pull off
b - bend
s - slide
/ -  slide into from below or out of upwards
\ -  slide into from above or out of downwards
~ - vibrato
W - wide vibrato
tr - trill
TP - tremolo picking
T - tapping
S - slap
P - pop
< - fade in
^ - brush up
v - brush down
Login or Register to remove this ad.

3 comments on Painful History

Top notch.

5

Top notch.

Gotta love it when a great

5

Gotta love it when a great Katawa Shoujo tab is uploaded. Have all of my thanks

Thanks. I'm in a sort of

Thanks. I'm in a sort of Katawa Shoujo arranging spree again, so I will upload at least few more in a near future.