Ads

Painful History (Katawa Shoujo) Guitar Tab

Submitted: Mar 12, 2012 by daniel guerra c...

5
Average: 5 (1 vote)
Download | Listen
Game: Katawa Shoujo
Composer(s): Blue123, Nicol Armarfi
Style: Arrangement

This song is also called Hanako's Theme

Click here for a video example.

AutoScroll: Slow | Medium | Fast
Painful History - Katawa Shoujo
Guitar Cover

Song : Painful History (Hanako's Theme)
Game : Katawa Shoujo
Cover: Daniel Guerra Caballero (original)
Video: http://youtu.be/dmFpYfIya7Q
Date : March, 2012
Mail : danielguerra[email protected]
web  : http://danielguerracaballero.blogspot.com


Intro

1-16---------------16----------------16-18-19-18----------16-------
2----12-16-14-12------12-16-14-16----------------19-17-19----16-19-
3------------------------------------------------------------------
4------------------------------------------------------------------
5------------------------------------------------------------------
6------------------------------------------------------------------

1-16-18-19-18-19-18-23-21-23-19----18-19-18-14-16------
2------------------------------------------------------
3------------------------------------------------------
4------------------------------------------------------
5------------------------------------------------------
6------------------------------------------------------

1-16-18-19-18----------16------------------------14-16-
2-------------19-17-19----16-19---------14-12-11-14-16-
3---------------------------------11-13----------------
4------------------------------------------------------
5------------------------------------------------------
6------------------------------------------------------

Arpegio
1------------------------------------------------------
2----------7-4-----------------------------------------
3-----4------------------------------------------------ (x2)
4--------6------------4---6-4--------------------------
5---6--------------2---2-------------------------------
6-4--------------0-------------------------------------


00:54

1--------------------------------------------14-12-11--
2-9-11-12-11----------------9-11-12-11-12-14-----------
3------------11-9-11-13-8------------------------------
4------------------------------------------------------
5------------------------------------------------------
6------------------------------------------------------

1------------------------------------------------------
2-9-11-12-11-----------------9-14-12-11-9-7-9----------
3------------11-9-11-13-8------------------------------
4------------------------------------------------------
5------------------------------------------------------
6------------------------------------------------------

Flute (change pickups to bridge)
1--------------------------------------------14-12-11--
2-9-11-12-11----------------9-11-12-11-12-14-----------
3------------11-9-11-13-8------------------------------
4------------------------------------------------------
5------------------------------------------------------
6------------------------------------------------------

1------------------------------------------------------
2-9-11-12-11-----------------9-------14-12-11----------
3------------11-9-11-13-8------11-13----------13-11-13-
4------------------------------------------------------
5------------------------------------------------------
6------------------------------------------------------

01:51 (back to middle)

1--------------------------------------------15-------------
2----------------16-17-----------16-17-14-------16-14-------
3-13-15-16-15----------16-15-16-----------15----------16-16-
4-------------16--------------------------------------------
5-----------------------------------------------------------
6-----------------------------------------------------------

1-----------------------------------------12-15-18----------
2------9-12-11---12-11-12-11-9-7-9--------------------------
3-8-11-----------------------------/13-12-------------------
4-----------------------------------------------------------
5-----------------------------------------------------------
6-----------------------------------------------------------


End

1--------------------16-14-11-12-11-9-11---------------
2----------14-16---------------------------------------
3-13-15-16-------13------------------------------------
4------------------------------------------------------
5------------------------------------------------------
6------------------------------------------------------


1------------------------16----------------------------
2-9-12-9-----------12-9--16----------------------------
3--------------8---------16----------------------------
4---------9------9-------------------------------------
5-----------11-----------------------------------------
6------------------------------------------------------
Login or Register to remove this ad.