Ah Eh I Oh You (Katawa Shoujo) Bass/Guitar Tab

Submitted: Jun 16, 2012 by daniel guerra c...

4.666665
Average: 4.7 (3 votes)
Download | Listen
Game: Katawa Shoujo
Composer(s): Blue123, Nicol Armarfi
Style: 2 or more instruments, Transcription

This song is also called Nurse's Theme

Click here for a video example.

AutoScroll: Slow | Medium | Fast
Song : Ah Eh I Oh You (Nurse Theme)
Game : Katawa Shoujo
Cover: Daniel Guerra Caballero (original)
Video: http://youtu.be/hOy6-8v_dIY
Date : June, 2012
Mail : [email protected]
web  : http://danielguerracaballero.blogspot.com

Intro Keyboard (repeat)

1--------------------------------
2--------------------------------
3-14--14--14---12----------------
4-16--16--16---14----------------
5--------------------------------
6--------------------------------


Bass
Time: 0:13 - 1:23 (Full riff)
1----------------------------------
2----------------------------------
3---7-0-7-0-7-0-0---7-7-7-7-0-0----
4-5--------------------------------

1----------------------------------
2----------------------------------
3---7-0-7-0-7-0-0---3-5-5-5--5-5-3-
4-5--------------------------------


Time: 1:24 - 1:26 (intro bass riff)
1----------------------------------
2----------------------------------
3---7-0-7-0-7-0-0------------------
4-5--------------------------------


Time 1:27 - 2:07 (back to full riff)
1----------------------------------
2----------------------------------
3---7-0-7-0-7-0-0---7-7-7-7-0-0----
4-5--------------------------------

1----------------------------------
2----------------------------------
3---7-0-7-0-7-0-0---3-5-5-5--5-5-3-
4-5--------------------------------


Guitar 2 (saxophone)
Time: 0:21, 0:41, 1:01, 1:21, 1:41(x2)

1------------------------------------------
2------------------------------------------
3------------------------------------------
4------------------------------------------
5-7---5-7--7-7-7-7-------------------------
6---7--------------5-----------------------


Guitar 1 (Saxophone)
Time: 0:43

1------------------------------------------
2-/5---------------------------------------
3----7-6-4---------------------------------
4----------7-5------5-7--5-5-----/7-5------
5--------------7--7----------7-7------7-7--
6------------------------------------------

1------------------------------------------
2-/5-------5-------------------------------
3----7-6-7---7-9----6-7-7-6-7-9-6----------
4-----------------7---------------7--5-7---
5------------------------------------------
6------------------------------------------

1------------------------------------------
2---------17-15-14-12-10-----17-15-17-15-14
3-9-9-7-9----------------9-7---------------
4------------------------------------------
5------------------------------------------
6------------------------------------------

1------------------------------------------
2-------------17-15-17-10--12-10-10--------
3-9--9----9-------------------------12-----
4------7-------------------------------14--
5-----------7------------------------------
6------------------------------------------

1------------------------------------------
2-/5---------------------------------------
3----7-6-4---------------------------------
4----------7-5------5-7--5-5-----/7-5------
5--------------7--7----------7-7------7-7--
6------------------------------------------

1------------------------------------------
2-/5-------5-------------------------------
3----7-6-7---7-9----6-7-7-6-7-9-6----------
4-----------------7---------------7--------
5------------------------------------------
6------------------------------------------

1------------------------------------------
2------------------------------------------
3----7-9-9--4-6-8-11--4-6-8-9--4-6-4-------
4-/9---------------------------------7-----
5------------------------------------------
6------------------------------------------

1------------------------------------------
2------------------------------------------
3-9-7-6------8-9-11-9---4-6-8-11--4-6-8-9--
4-------9-11-------------------------------
5------------------------------------------
6------------------------------------------

1------------------------------------------
2------------------------------------------
3-4-6-4----9-7-5---2-----------------------
4-------7--------7-------------------------
5------------------------------------------
6------------------------------------------
Login or Register to remove this ad.