Lonely Rolling Star (Katamari Damacy) Guitar Tab

Submitted: May 31, 2017 by K0HIJIN

5
Average: 5 (2 votes)
Download | Listen
Game: Katamari Damacy
Composer(s): Yu Miyake
Style: Arrangement, Fingerstyle

AutoScroll: Slow | Medium | Fast
Game:           Katamari Damacy
Name of song:   Lonely Rolling Star
Composer:       Yoshihito Yano
Tabber:         K0HIJIN
Date:           May 29th, 2017

[Standard Tuning]






  W                                                   W
|-------------------------|-------------------------|-------------------------|-------------------------|
|-8-----------------------|-L-----------------------|-8-----------------------|-L-----------------------|
|-7-----------------------|-L-----------------------|-5-----------------------|-L-----------------------|
|-8-----------------------|-L-----------------------|-5-----------------------|-L-----------------------|
|-6-----------------------|-L-----------------------|-6-----------------------|-L-----------------------|
|-------------------------|-------------------------|-------------------------|-------------------------|

  W                                                   H.                E  E    H           H
|-------------------------|-------------------------|-------------------------|-------------------------|
|-6-----------------------|-L-----------------------|-6-----------------L--6--|-L-----------8-----------|
|-4-----------------------|-L-----------------------|-6-----------------L--5--|-L-----------------------|
|-6-----------------------|-L-----------------------|-------------------------|-------------------------|
|-6-----------------------|-L-----------------------|-6-----------------L--6--|-L-----------------------|
|-------------------------|-------------------------|-------------------------|-------------------------|




  Q     Q.       E  E  E    E  E  Q     Q     E  E    Q     Q.       E  E  E    E  E  Q     Q     E  E        
|-------3--------3--4--6--|-L--6--4-----3-----------|-------3--------3--4--6--|-L--6--4-----3-----------|
|-------3-----------------|-------------------4-----|-------------------------|-------------------4-----|
|-------------------------|----------------------5--|-------5-----------------|----------------------5--|
|-1-----------------------|-------------------------|-6-----------------------|-------------------------|
|-------------------------|-------------------------|-------------------------|-------------------------|
|-------------------------|-------------------------|-------------------------|-------------------------|

  Q     Q.       E  E  E    E  E  Q     Q     E  E    Q     Q     E  Q     E     H          H       
|----------------3-H4--6--|-L--6--4-----3-----------|-------------------------|-------------------------|
|-------6-----------------|-------------------4-----|-------6--------6-----6--|--L----------8-----------|
|-------4-----------------|----------------------5--|-------6--------6-----5--|--L----------------------|
|-------6-----------------|-------------------------|-4--------------4--------|-------------------------|
|-4-----------------------|-------------------------|----------------------6--|--L----------------------|
|-------------------------|-------------------------|-------------------------|-------------------------|




  H           E  E  E  E    Q.       Q     Q.         H           Q     E  E    Q.       Q     Q.     
|-------------3--3--4--3--|-------------------------|-------------3-----4--3--|-------------------------|
|-3-----------------------|-3--------3-----3--------|-1-----------------------|-1--------1-----1--------|
|-3-----------------------|-3--------3-----3--------|-1-----------------------|-1--------1-----1--------|
|-------------------------|-------------------------|-------------------------|-------------------------|
|-------------------------|-------------------------|-------------------------|-------------------------|
|-------------------------|-------------------------|-------------------------|-------------------------|

  H           E  E  E  E    Q.       Q     Q.         H           E  E  E  E    Q.       Q     Q.     
|-------------------------|-------------------------|-------------------------|-------------------------|
|-------------4--4--6--4--|-------------------------|-------------4--4--6--4--|-------------------------|
|-4-----------------------|-4--------4-----4--------|-6-----------------------|-5--------3-----3--------|
|-------------------------|-------------------------|-4-----------------------|-3--------5-----5--------|
|-4-----------------------|-4--------4-----4--------|-------------------------|-------------------------|
|-------------------------|-------------------------|-------------------------|-------------------------|

  Q     Q     E  E  E  E    Q.       Q     E   Q      Q     Q     E  E  E  E    Q.       Q     E  Q     
|-------------3--3--4--3--|-------------------------|-------------3--3--4--3--|-------------------------|
|-------3-----------------|-3--------3-----3--------|-------------------------|-------------------------|
|-------3-----------------|-3--------3---------3----|-------5-----------------|-5--------5-----5--------|
|-1-----------------------|-1--------1-----1--------|-------5-----------------|-5--------5--------4-----|
|-------------------------|-------------------------|-------------------------|-------------------------|
|-------------------------|-------------------------|-4-----------------------|-4--------4-----4--------|

  Q     Q     E  E  E  E    Q.       Q     E   Q      Q.       E  E  E  E  E    Q.       Q     Q.     
|-------------------------|-------------------------|-------------------------|-------------------------|
|-------------4--4--6--4--|-------------------------|-6--------4--4--4--6--4--|-6--------4-----4--------|
|-------4-----------------|-4--------4-----4--------|-6-----------------------|-5-----------------------|
|-------6-----------------|-6--------6---------6----|-4-----------------------|-3--------5-----5--------|
|-4-----------------------|-4--------4-----4--------|-------------------------|-------------------------|
|-------------------------|-------------------------|-------------------------|-------------------------|





  H           E  E  E  E    Q.       Q     E  E  E    H           E  E  E  E    Q.       Q     E  E  E 
|-------------3--3--4--3--|-------------------------|-------------3--3--4--3--|-------------------------|
|-3-----------------------|-3--------3-----6--------|-------------------------|----------------4--------|
|-3-----------------------|-3-----------------7-----|-5-----------------------|-5--------5--------5-----|
|-------------------------|----------------------8--|-6-----------------------|-6--------------------6--|
|-------------------------|-------------------------|-------------------------|-------------------------|
|-------------------------|-------------------------|-------------------------|-------------------------|

  H           E  E  E  E    Q.       Q     E  E  E    H           E  E  E  E    Q.       Q     Q.     
|-------------------------|-------------------------|-------------------------|-------------------------|
|-------------4--4--6--4--|----------------6--------|-6-----------4--4--6--4--|-------------------------|
|-4-----------------------|-4--------4--------4-----|-6-----------------------|-5--------3-----3--------|
|-------------------------|-------------------------|-4-----------------------|-3--------5-----5--------|
|-4-----------------------|-4--------------------4--|-------------------------|-------------------------|
|-------------------------|-------------------------|-------------------------|-------------------------|


  Q     Q     Q     E  E    Q.       Q     E   Q      Q     Q     E  E  E  E    Q.       Q     E  Q     
|-------------3-----4--3--|-------------------------|-------------3--3--4--3--|-------------------------|
|-------3-----------------|-3--------3-----3--------|-------------------------|-------------------------|
|-------3-----------------|-3--------3---------3----|-------5-----------------|-5--------5-----5--------|
|-1-----------------------|-1--------1-----1--------|-------5-----------------|-5--------5--------4-----|
|-------------------------|-------------------------|-------------------------|-------------------------|
|-------------------------|-------------------------|-4-----------------------|-4--------4-----4--------|

  Q     Q     Q     E  E    Q.       Q     E   Q      Q.          E  E  E  E    Q.       Q     Q.     
|-------------------------|-------------------------|-------------------------|-------------------------|
|-------------4-----6--4--|-------------------------|-6-----------4--4--6--4--|-6--------4-----4--------|
|-------4-----------------|-4--------4-----4--------|-6-----------------------|-5-----------------------|
|-------6-----------------|-6--------6---------6----|-4-----------------------|-3--------5-----5--------|
|-4-----------------------|-4--------4-----4--------|-------------------------|-------------------------|
|-------------------------|-------------------------|-------------------------|-------------------------|





  Q     Q     E  Q     E    E  Q     Q.       Q       Q     H           E  E    H           Q.       E        
|-------------6--6-----6--|-L--4-----3--------------|-------------------------|-------------------------|
|-------4-----------------|-------------------4-----|-------4-----------L-----|-4-----------3-----------|
|-------0-----------------|-------------------------|-------0-----------L--5--|----------------------5--|
|-------------------------|-------------------------|-------------------------|-------------4-----------|
|-------------------------|-------------------------|-------------------------|-6-----------------------|
|-4-----------------------|-------------------------|-5-----------------L-----|-------------------------|

  E  H.                E    H           E  E  E  E    H           E  E  E  E    E  H           E  E  E
|-------------------------|-------------------------|-------------------------|-------------------------|
|-------------------------|-4-----------4--3--------|-1-----------1--3--4--4--|-L-----------------------|
|-5--3-----------------L--|-3-----------------5--3--|-1-----------1--3--5--5--|-L--5-----------5--7--8--|
|-------------------------|-------------------------|-------------------------|----6-----------6--------|
|-------------------------|-3-----------------------|-------------------------|-------------------------|
|-3--------------------L--|-------------------3-----|-1-----------------------|-------------------------|

  H           H             H           H             W                                  E  E  E  E  E
|-------------------------|-------------------------|-------------------------|-------------------------|
|-8-----------6-----------|-------------6-----------|-L-----------------------|-x--------8--6-----------|
|-8-----------7-----------|-8-----------7-----------|-L-----------------------|-x--------------8--5-----|
|-------------------------|-8-----------------------|-------------------------|----------------------8--|
|-------------------------|-------------------------|-------------------------|-------------------------|
|-6-----------6-----------|-6-----------6-----------|-L-----------------------|-x-----------------------|





  W                         H           Q     Q       Q     E  H           E    Q.        
|-------------------------|-6-----------------------|-9-----L--L-----------L--|-L--------8--------------|
|-8-----------------------|-8-----------6-----------|-6-----8--8-----------L--|-L-----------------------|
|-------------------------|-8-----------------8-----|-------------------------|----------9--------------|
|-8-----------------------|-------------------------|-------------------------|-------------------------|
|-6-----------------------|-6-----------------------|-------------------------|-------------------------|
|-------------------------|-------------------------|-9--------------------L--|-L--------8--------------|

  W                         H           Q     Q       Q.       H           E    Q     Q     H
|-------------------------|-------------------------|-1--------3-----------L--|-L-----------------------|
|-------------------------|-4-----------6-----4-----|-0--------------------L--|-L-----8-----6-----------|
|-5-----------------------|-------------------------|-------------------------|-------------------------|
|-6-----------------------|-------------------------|-------------------------|-------------------------|
|-------------------------|-------------------------|-------------------------|-------------------------|
|-4-----------------------|-4-----------------------|-4--------------------L--|-L-----6-----------------|

  W                         H           Q     Q       Q     E  H           E    Q.        
|-------------------------|-6-----------------------|-9-----L--L-----------L--|-L--------8--------------|
|-8-----------------------|-8-----------6-----------|-6-----8--8-----------L--|-L-----------------------|
|-------------------------|-8-----------------8-----|-------------------------|----------9--------------|
|-8-----------------------|-------------------------|-------------------------|-------------------------|
|-6-----------------------|-6-----------------------|-------------------------|-------------------------|
|-------------------------|-------------------6-----|-9--------------------L--|-L--------8--------------|

  W                         Q.       Q.       Q       W                         W
|-------------------------|-------------------------|-------------------------|-------------------------|
|-------------------------|----------4--------6-----|-8-----------------------|-6-----------------------|
|-5-----------------------|-5-----------------------|-------------------------|-------------------------|
|-6-----------------------|-------------------------|-8-----------------------|-6-----------------------|
|-------------------------|-------------------------|-------------------------|-------------------------|
|-4-----------------------|-4-----------------------|-6-----------------------|-6-----------------------|







  H          H                                        W
|-------------------------|-------------------------|-------------------------|-------------------------|
|-6----------8------------|-L-----------------------|-------------------------|-------------------------|
|-7----------L------------|-L-----------------------|-5-----------------------|-H-----------------------|
|-8----------L------------|-L-----------------------|-5-----------------------|-H-----------------------|
|-6----------L------------|-L-----------------------|-6-----------------------|-H-----------------------|
|-------------------------|-------------------------|-------------------------|-------------------------|

  W                                                   H.                E  E    H           H
|-------------------------|-------------------------|-------------------------|-------------------------|
|-6-----------------------|-L-----------------------|-6-----------------L--6--|-L-----------8-----------|
|-4-----------------------|-L-----------------------|-6-----------------L--5--|-L-----------------------|
|-6-----------------------|-L-----------------------|-------------------------|-------------------------|
|-6-----------------------|-L-----------------------|-6-----------------L--6--|-L-----------------------|
|-------------------------|-------------------------|-------------------------|-------------------------|




  Q     Q.       E  E  E    E  E  Q     Q     E  E    Q     Q.       E  E  E    E  E  Q     Q     E  E        
|-------3--------3--4--6--|-L--6--4-----3-----------|-------3--------3--4--6--|-L--6--4-----3-----------|
|-------3-----------------|-------------------4-----|-------------------------|-------------------4-----|
|-------------------------|----------------------5--|-------5-----------------|----------------------5--|
|-1-----------------------|-------------------------|-6-----------------------|-------------------------|
|-------------------------|-------------------------|-------------------------|-------------------------|
|-------------------------|-------------------------|-------------------------|-------------------------|

  Q     Q.       E  E  E    E  E  Q     Q     E  E    Q     Q.       Q     E     H          H       
|----------------3-H4--6--|-L--6--4-----3-----------|-------------------------|-------------------------|
|-------6-----------------|-------------------4-----|-------6--------6-----6--|--L----------8-----------|
|-------4-----------------|----------------------5--|-------6--------6-----5--|--L----------------------|
|-------6-----------------|-------------------------|-4--------------4--------|-------------------------|
|-4-----------------------|-------------------------|----------------------6--|--L----------------------|
|-------------------------|-------------------------|-------------------------|-------------------------|





  E  E  E  E  E  E  E  E    E  E  E  E  E  E  E  E    E  E  E  E  E  E  E  E    E  E  E  E  E  E  E  E     
|-------------3--3--4--3--|-------------1-----------|-------------3--3--4--3--|-------------------------|
|-------3-----------------|-------3-----------------|-4-----------------------|-------------4-----------|
|----3-----------------3--|----3--------0--0--1--0--|-------5-----------------|-------5-----0--0--1--0--|
|-1--------1--------------|-1--------1--------------|----5-----------------5--|----5--------------------|
|-------------------------|-------------------------|-------------------------|-------------------------|
|-------------------------|-------------------------|-4--------4--------------|-4--------4--------------|

  E  E  E  E  Q     E  E    E  E  E  E  Q     E  E   H           Q     E  E    Q.       Q     Q.     
|-------------------------|-------------------------|-------------------------|-------------------------|
|-------------4-----6--4--|-------------6-----------|------------4-----6--4---|-------------------------|
|-------4-----------------|-------4-----------------|-6-----------------------|-5--------3-----3--------|
|----6-----------------6--|----6--------------------|-4-----------------------|-3--------5-----5--------|
|-4--------4--------------|-4--------4--6-----8--6--|-------------------------|-------------------------|
|-------------------------|-------------------------|-------------------------|-------------------------|

  Q     Q     E  E  E  E    Q.       Q     E   Q      Q     Q     E  E  E  E    Q.       Q     E  Q     
|-------------3--3--4--3--|-------------------------|-------------3--3--4--3--|-------------------------|
|-------3-----------------|-3--------3-----3--------|-------------------------|-------------------------|
|-------3-----------------|-3--------3---------3----|-------5-----------------|-5--------5-----5--------|
|-1-----------------------|-1--------1-----1--------|-------5-----------------|-5--------5--------4-----|
|-------------------------|-------------------------|-------------------------|-------------------------|
|-------------------------|-------------------------|-4-----------------------|-4--------4-----4--------|

  Q     Q     E  E  E  E    Q.       Q     E   Q      Q.       E  E  E  E  E    Q.       Q     Q.     
|-------------------------|-------------------------|-------------------------|-------------------------|
|-------------4--4--6--4--|-------------------------|-6--------4--4--4--6--4--|-6--------4-----4--------|
|-------4-----------------|-4--------4-----4--------|-6-----------------------|-5-----------------------|
|-------6-----------------|-6--------6---------6----|-4-----------------------|-3--------5-----5--------|
|-4-----------------------|-4--------4-----4--------|-------------------------|-------------------------|
|-------------------------|-------------------------|-------------------------|-------------------------|





  Q     Q     E  Q     E    E  Q     Q.       Q       Q     H           E  E    H           Q.       E        
|-------------6--6-----6--|-L--4-----3--------------|-------------------------|-------------------------|
|-------4-----------------|-------------------4-----|-------4-----------L-----|-4-----------3-----------|
|-------0-----------------|-------------------------|-------0-----------L--5--|----------------------5--|
|-------------------------|-------------------------|-------------------------|-------------4-----------|
|-------------------------|-------------------------|-------------------------|-6-----------------------|
|-4-----------------------|-------------------------|-5-----------------L-----|-------------------------|

  E  H.                E    H           E  E  E  E    H           E  E  E  E    E  H           E  E  E
|-------------------------|-------------------------|-------------------------|-------------------------|
|-------------------------|-4-----------4--3--------|-1-----------1--3--4--4--|-L-----------------------|
|-5--3-----------------L--|-3-----------------5--3--|-1-----------1--3--5--5--|-L--5-----------5--7--8--|
|-------------------------|-------------------------|-------------------------|----6-----------6--------|
|-------------------------|-3-----------------------|-------------------------|-------------------------|
|-3-----------------------|-------------------3-----|-1-----------------------|-------------------------|

  H           H             H           H             W                         Q.       E  E  E  E  E
|-------------------------|-------------------------|-------------------------|-------------------------|
|-8-----------6-----------|-------------6-----------|-L-----------------------|-x--------8--6-----------|
|-8-----------7-----------|-8-----------7-----------|-L-----------------------|-x--------------8--5-----|
|-------------------------|-8-----------------------|-------------------------|----------------------8--|
|-------------------------|-------------------------|-------------------------|-------------------------|
|-6-----------6-----------|-6-----------6-----------|-L-----------------------|-x-----------------------|




  W                         H           Q     Q       Q     E  H           E    Q.       
|-------------------------|-6-----------------------|-9-----L--L-----------L--|-L--------8--------------|
|-8-----------------------|-8-----------6-----------|-6-----8--8-----------L--|-L-----------------------|
|-------------------------|-8-----------------8-----|-------------------------|----------9--------------|
|-8-----------------------|-------------------------|-------------------------|-------------------------|
|-6-----------------------|-6-----------------------|-------------------------|-------------------------|
|-------------------------|-------------------------|-9--------------------L--|-L--------8--------------|

  W                         H           Q     Q       Q.       H           E    Q     Q     H
|-------------------------|-------------------------|-1--------3-----------L--|-L-----------------------|
|-------------------------|-4-----------6-----4-----|-0--------L-----------L--|-L-----8-----6-----------|
|-5-----------------------|-------------------------|-------------------------|-------------------------|
|-6-----------------------|-------------------------|-------------------------|-------------------------|
|-------------------------|-------------------------|-------------------------|-------------------------|
|-4-----------------------|-4-----------------------|-4--------L-----------L--|-L-----6-----------------|

  W                         H           Q     Q       Q     E  H           E    Q.       
|-------------------------|-6-----------------------|-9-----L--L-----------L--|-L--------8--------------|
|-8-----------------------|-8-----------6-----------|-6-----8--8-----------L--|-L-----------------------|
|-------------------------|-8-----------------8-----|-------------------------|----------9--------------|
|-8-----------------------|-------------------------|-------------------------|-------------------------|
|-6-----------------------|-6-----------------------|-------------------------|-------------------------|
|-------------------------|-------------------6-----|-9--------------------L--|-L--------8--------------|

  W                         Q.       Q.       Q       W                         Q.    E  E  H
|-------------------------|-------------------------|-3-----------------------|-------------------------|
|-------------------------|----------4--------6-----|-------------------------|-6-----4--6-p4-----------|
|-5-----------------------|-5-----------------------|-3-----------------------|-------------------------|
|-6-----------------------|-------------------------|-------------------------|-6-----------------------|
|-------------------------|-------------------------|-------------------------|-------------------------|
|-4-----------------------|-4-----------------------|-4-----------------------|-6-----------------------|




  W                         H           Q     Q       Q     E  H           E    Q.        
|-------------------------|-6-----------------------|-9-----L--L-----------L--|-L--------8--------------|
|-8-----------------------|-8-----------6-----------|-6-----8--8-----------L--|-L-----------------------|
|-------------------------|-8-----------------8-----|-------------------------|----------9--------------|
|-8-----------------------|-------------------------|-------------------------|-------------------------|
|-6-----------------------|-6-----------------------|-------------------------|-------------------------|
|-------------------------|-------------------6-----|-9--------------------L--|-L--------8--------------|

  W                         H           Q     Q       Q.       H           E    Q     Q     H
|-------------------------|-------------------------|-1--------3-----------L--|-------6-----4-----------|
|-------------------------|-4-----------6-----4-----|-0--------L-----------L--|-------8-----6-----------|
|-5-----------------------|-------------------------|-------------------------|-------------------------|
|-6-----------------------|-------------------------|-------------------------|-------------------------|
|-------------------------|-------------------------|-------------------------|-------------------------|
|-4-----------------------|-4-----------------------|-4--------L-----------L--|-------6-----------------|

  W                         H           Q     Q       Q     E  H           E    Q.        
|-------------------------|-6-----------------------|-9-----9--9-----------L--|-L--------8--------------|
|-8-----------------------|-8-----------6-----------|-6-----8--8-----------L--|-L--------8--------------|
|-------------------------|-8-----------------8-----|-------------------------|----------9--------------|
|-8-----------------------|-------------------------|-------------------------|-------------------------|
|-6-----------------------|-6-----------------------|-------------------------|-------------------------|
|-------------------------|-------------------6-----|-9--------------------L--|-L--------8--------------|

  W                         Q.       Q.       Q       W                         H.                Q
|-------------------------|-------------------------|-------------------------|-------------------------|
|-------------------------|----------4--------6-----|-8-----------------------|-6-----------------4-----|
|-5-----------------------|-5--------5--------7-----|-------------------------|-------------------------|
|-6-----------------------|-6-----------------------|-8-----------------------|-6-----------------------|
|-------------------------|-------------------------|-------------------------|-------------------------|
|-4-----------------------|-------------------------|-6-----------------------|-4-----------------------|







  Q     Q     Q     Q       Q     Q     Q     Q       Q     Q     Q     Q       Q     Q     Q     Q      
|-1-----------------------|-------------------------|-------------------------|-------------------------|
|-------------4-----------|-3----------1------------|-1-----------------------|-------------------------|
|-------3-----------0-----|------3------------0-----|-------------1-----------|-0-----------------------|
|-------------------------|-------------------------|-------3-----------------|-------1-----3-----------|
|-------------------------|-3-----------------------|-------------------3-----|-1-----------------5-----|
|-3-----------------------|-------------------------|-1-----------------------|-------------4-----------|

  Q     Q     Q     Q       Q     Q     Q     Q       Q     Q     Q     Q       Q     Q     Q     Q      
|-1-----------------------|-------------------------|-------------------------|-------------------------|
|-------------4-----------|-3----------1------------|-1-----------------------|-3-----1-----------------|
|-------3-----------0-----|------3------------0-----|-------------1-----------|-3-----1-----3-----1-----|
|-------------------------|-------------------------|-------3-----------------|-------------0-----------|
|-------------------------|-3-----------------------|-------------------3-----|-1-----------1-----------|
|-3-----------------------|-------------------------|-1-----------------------|-------------------------|




  Q     Q     Q     Q       Q     Q     Q     Q       Q     Q     Q     Q       Q     Q     Q     Q      
|-------------3-----3-----|-------------------------|-------------------------|-6-----6-----------------|
|-------------------------|-6-----6-----------------|-------------6-----6-----|-------------6-----6-----|
|-5-----5-----------------|-------------7-----7-----|-8-----8-----------------|-------------------------|
|-------------------------|-------------------------|-8-----------6-----------|-L-----------L-----------|
|-------------------------|-6-----------------------|-------------------------|-------------------------|
|-4-----------------------|-------------------------|-------------------------|-------------------------|

  Q     Q     Q     Q       Q     Q     Q     Q       Q     Q     Q     Q       Q     Q     Q     Q      
|-------------3-----3-----|-------------------------|-------------------------|-6-----6-----8-----8-----|
|-------------------------|-6-----6-----------------|-------------6-----6-----|-------------------------|
|-5-----5-----------------|-------------7-----7-----|-8-----8-----------------|-------------------------|
|-------------------------|-------------------------|-8-----------6-----------|-L-----------6-----------|
|-------------------------|-6-----------------------|-------------------------|-------------------------|
|-4-----------------------|-------------------------|-------------------------|-------------------------|

  Q     Q     Q     Q       H           H             Q     Q     Q     Q       Q     Q     Q     Q     
|-10----10----------------|-------------------------|-------------3-----------|-------------------------|
|-11----11----11----11----|-8-----------6-----------|-------------------------|-6-----------------------|
|-------------12----12----|-7-----------7-----------|-5-----------------------|-------------7-----------|
|-------------------------|-5-----------------------|-------5-----------5-----|-------8-----------8-----|
|-10----------------------|-------------------------|-------------------------|-6-----------------------|
|-------------------------|-------------------------|-4-----------------------|-------------------------|


  Q     Q     Q     Q       Q     Q     Q     Q       Q     Q     Q     Q       Q     Q     Q     Q     
|-------------------------|-6-----------------------|-------------3-----------|-------------------------|
|-------------6-----------|-------------6-----------|-------------------------|-6-----------------------|
|-8-----------------8-----|-------8-----------8-----|-5-----------------------|-------------7-----------|
|-------8-----6-----------|-L-----------L-----------|-------5-----------5-----|-------8-----------8-----|
|-------------------------|-------------------------|-------------------------|-6-----------------------|
|-6-----------------------|-------------------------|-4-----------------------|-------------------------|

  Q     Q     Q     Q       Q     Q     Q     Q       H           H             H           H
|-------------------------|-6-----------8-----------|-10----------------------|-------------------------|
|-------------6-----------|-------------------------|-------------11----------|-------------6-----------|
|-8-----------------8-----|-------8-----------8-----|-10----------10----------|-7-----------------------|
|-------8-----6-----------|-L-----------6-----------|-------------------------|-------------------------|
|-------------------------|-------------------------|-10----------------------|-6-----------------------|
|-6-----------------------|-------------------------|-------------------------|-------------------------|

  H          Q      Q       H           Q     Q       H           H             H           H
|-6-----------------------|-------------------------|-4-----------3-----------|-------------------------|
|-------------------9-----|-9-----------------6-----|-------------------------|-6-----------8-----------|
|------------6------------|-------------5-----------|-------------------------|-------------------------|
|-------------------------|-------------------------|-------------------------|-------------------------|
|-7-----------------------|-8-----------------------|-5-----------------------|-4-----------6-----------|
|-------------------------|-------------------------|-------------------------|-------------------------|

  Q     H           Q       Q     Q     Q     Q       H           H             H           H
|-------------------3-----|-3-----------------------|-------------------------|-------------------------|
|-6-----4-----------------|-------4-----------3-----|-4-----------------------|-4-----------6-----------|
|-------------------------|-------------5-----------|-5-----------5-----------|-5-----------7-----------|
|-------------------------|-------------------------|-------------6-----------|-------------------------|
|-------------------------|-------------------------|-------------------------|-------------------------|
|-4-----------------------|-L-----------------------|-4-----------------------|-------------------------|

  H.                Q       W                         Q.       E  E  E  E  E
|-------------------------|-------------------------|-------------------------|
|-8-----------------6-----|-6-----------------------|-x--------8--6-----------|
|-8-----------------7-----|-7-----------------------|-x--------------8--5-----|
|-------------------------|-------------------------|----------------------8--|
|-------------------------|-------------------------|-------------------------|
|-6-----------------6-----|-6-----------------------|-x-----------------------|




  Q     Q     H             Q.      Q.        Q       Q     E  E  E        E    Q.       Q.       Q
|-------------------------|-6-----------------L-----|-9-----9--9--L--------L--|----------8--------------|
|-8-----6-----------------|-8-------6---------------|-6-----8--8--L--------L--|-------------------8-----|
|-------------8-----------|-8-----------------8-----|-------------8--------L--|-10-------9--------------|
|-8-----L-----L-----------|-------------------------|-------------------------|-------------------------|
|-6-----L-----L-----------|-6-----------------------|-------------------------|-------------------------|
|-------------------------|-------------------------|-9--------------------L--|----------8--------------|

  Q     Q     H             Q.       E  Q     Q       Q     E  E  H             Q     E  Q     E  E  E 
|-------3-----------------|-3--------3--------------|-1-----3--3--------------|----------6--------------|
|-------------6-----------|-4-----------6-----4-----|-0-----------6-----------|-8--------------9--8-----|
|-5-----------------------|-------------------------|-------------------------|----------------------8--|
|-------------------------|-------------------------|-------------------------|-------------------------|
|-------------------------|-------------------------|-------------------------|-------------------------|
|-4-----------------------|-4-----------------------|-4-----------------------|-------6-----------------|

  Q     Q     H             Q.      Q.        Q       Q     E  E  E        E    Q.       Q.       Q
|-------------------------|-6-----------------L-----|-9-----9--9--L--------L--|----------8--------------|
|-8-----6-----------------|-8-------6---------------|-6-----8--8--L--------L--|-------------------8-----|
|-------------8-----------|-8-----------------8-----|-------------8--------L--|-10-------9--------------|
|-8-----L-----L-----------|-------------------------|-------------------------|-------------------------|
|-6-----L-----L-----------|-6-----------------------|-------------------------|-------------------------|
|-------------------------|-------------------6-----|-9--------------------L--|----------8--------------|

  Q     Q     H             Q.       E  Q     Q       H           H             Q.       Q     E  E  E 
|-------3-----------------|----------3--------------|-3-----------------------|----------6--------------|
|-------------6-----------|-------------4-----6-----|-------------6-----------|-8--------------9--8-----|
|-5-----------------------|-5-----------------------|-3-----------------------|----------------------8--|
|-------------------------|-------------------------|-------------------------|-6-----------------------|
|-------------------------|-------------------------|-------------------------|-------------------------|
|-4-----------------------|-4-----------------------|-4-----------------------|-6-----------------------|




  Q     Q     H             Q.      Q.        Q       Q     E  E  E        E    Q.       Q.       Q
|-------------------------|-6-----------------L-----|-9-----9--9--L--------L--|----------8--------------|
|-8-----6-----------------|-8-------6---------------|-6-----8--8--L--------L--|-------------------8-----|
|-------------8-----------|-8-----------------8-----|-------------8--------L--|-10-------9--------------|
|-8-----L-----L-----------|-------------------------|-------------------------|-------------------------|
|-6-----L-----L-----------|-6-----------------------|-------------------------|-------------------------|
|-------------------------|-------------------------|-9--------------------L--|----------8--------------|

  Q     Q     H             Q.       E  Q     Q       Q     E  E  H             Q     E  Q     E  E  E 
|-------3-----------------|-3--------3--------------|-1-----3--3--------------|----------6--------------|
|-------------6-----------|-4-----------6-----4-----|-0-----------6-----------|-8--------------9--8-----|
|-5-----------------------|-------------------------|-------------------------|----------------------8--|
|-------------------------|-------------------------|-------------------------|-------------------------|
|-------------------------|-------------------------|-------------------------|-------------------------|
|-4-----------------------|-4-----------------------|-4-----------------------|-------6-----------------|

  Q     Q     H             Q.      E   Q     Q       Q     E  E  E        E    Q.       Q.       Q
|-------------------------|-6-----------6-----L-----|-9-----9--9--L-----------|----------8--------------|
|-8-----6-----------------|-8-------6---------------|-6-----8--8--L-----------|-------------------8-----|
|-------------8-----------|-8-----------------8-----|-------------8-----------|-10-------9--------------|
|-8-----L-----L-----------|-------------------------|-------------------------|-------------------------|
|-6-----L-----L-----------|-6-----------------------|-------------------------|-------------------------|
|-------------------------|-------------------6-----|-9-----------------------|----------8--------------|

  Q     Q     H             Q.       E  Q     Q       Q     Q     H             Q.       Q     E  E  E 
|-------3-----------------|-3--------3--------------|-------------------------|----------6--------------|
|-------------6-----------|-------------4-----6-----|-8-----8-----6-----------|-8--------------9--8-----|
|-5-----------------------|-5-----------5-----7-----|-------------------------|----------------------8--|
|-------------------------|-------------------------|-8-----------------------|-6-----------------------|
|-------------------------|-------------------------|-------------------------|-------------------------|
|-4-----------------------|-------------------------|-6-----------------------|-------------------------|




Repeat until fade out

  Q     Q     H             Q.       Q.       Q       Q     Q     H             Q.       Q.       Q     
|-------------------------|-------------------------|-------------------------|-------------------3-----|
|-------6-----4-----------|-6--------6--------4-----|-------6-----4-----------|-6--------5--------------|
|-------0-----------------|-0-----------------------|-------0-----------------|-0-----------------6-----|
|-------------------------|-------------------------|-------------------------|-------------------------|
|-6-----------------------|-6-----------------------|-4-----------------------|-4-----------------------|
|-------------------------|-------------------------|-------------------------|-------------------------|

  Q     Q     H             Q.       Q.       Q       Q     Q     H             Q.       Q     E  E  E  
|-------------------------|-------------------------|-------------------------|----------6--------------|
|-------8-----6-----------|-8--------8--------6-----|-------8-----6-----------|-8--------------9-p8-----|
|-------8-----------------|-8-----------------------|-------8-----------------|-8--------------------8--|
|-6-----------------------|-6-----------------------|-------------------------|-6-----------------------|
|-------------------------|-------------------------|-------------------------|-------------------------|
|-------------------------|-------------------------|-6-----------------------|-------------------------|






Login or Register to remove this ad.

1 comment on Lonely Rolling Star

Sounds Amazing!

5

A bit hard for a nube like me, but god this arrangement hits me right in the nostalgia. I'll memorize this if it kills me.