Login or Register to remove this ad.

Cherry Blossom Color Season (Katamari Damacy) Guitar Tab

Submitted: May 18, 2017 by K0HIJIN

0
Download | Listen
Game: Katamari Damacy
Composer(s): Yu Miyake
Style: Fingerstyle, Transcription

This song is also called Cherry Tree Times

AutoScroll: Slow | Medium | Fast
Game:           Katamari Damacy
Name of song:   Cherry Blossom Color Season (also called "Cherry Tree Times")
Composer:       Yuu Miyake
Tabber:         K0HIJIN
Date:           May 17th, 2017


[Standard Tuning]





Notes:

- The tab has been visually split based on who is performing at which part

- There are a few sections, such as the intro, where I could not determine if the 
  guitar part actually plays the bass note of the chord. It sounds a bit more full 
  with it, so anywhere I wasn't sure, I added it in. There are many sections where the bass 
  note is clearly audible in the original song, however, so there really isn't a blanket policy.
  




  

Intro (no voice)

  E  SSS SE  E  SSS SE      E  SSS SE  E  SSS SE      E  SSS SE  E  SSS SE      E  SSS SE  E  SSS SE    
|-----4----------4--------|-----2----------2--------|-----4----------4--------|-----7----------5--------|
|-5------5----------5-----|--------5----------5-----|-5------5----------5-----|--------5----------5-----|
|----4----4-----4----4----|----2----2-----2----2----|----4----4-----4----4----|----5----5-----5----5----|
|-------------------------|-------------------------|-------------------------|-------------------------|
|-------------------------|-0----0-----0----0-------|-2----2-----2----2-------|-0----0-----0----0-------|
|-0----0-----0----0-------|-------------------------|-------------------------|-------------------------|

  E  SSS SE  E  SSS SE      E  SSS SE  E  SSS SE      E  SSS SE  E  SSS SE      E  SSS SE  E  SSS SE    
|-----4----------4--------|-----2----------2--------|-----4----------4--------|-----7----------5--------|
|-5------5----------5-----|--------5----------5-----|-5------5----------5-----|--------5----------5-----|
|----4----4-----4----4----|----2----2-----2----2----|----4----4-----4----4----|----5----5-----5----5----|
|-------------------------|-------------------------|-------------------------|-------------------------|
|-------------------------|-0----0-----0----0-------|-2----2-----2----2-------|-0----0-----0----0-------|
|-0----0-----0----0-------|-------------------------|-------------------------|-------------------------|



Chorus

  E  SSS SE  E  SSS SE      E  SSS SE  E  SSS SE      E  SSS SE  E  SSS SE      E  SSS SE  E  SSS SE       
|-----4----------4--------|-----4----------4--------|-----4----------4--------|-----0----------2--------|
|-5------5---4------4-----|-3------3---3------3-----|--------5----------5-----|--------2----------4-----|
|----4----4-----4----4----|----4----4-----4----4----|----6----6-----4----4----|----2----2-----4----4----|
|-2----2-----2----2-------|-2----2-----2----2-------|-------------------------|-------------------------|
|-------------------------|-------------------------|-4----4-----2----2-------|-0----0-----2----2-------|
|-------------------------|-------------------------|-------------------------|-------------------------|

  E  SSS SE  E  SSS SE      E  SSS SE  E  SSS E.      E  SE  SE  E  SE  SE      E  E  E  E 
|-----4----------4--------|-----4-------------------|-----5----------4--------|------------|
|-5------5---4------4-----|-3------3------76--6-----|-5------5----------5-----|------------|
|----4----4-----4----4----|----4----4-----76--6-----|----5----5-----4----4----|----2-----4-|
|-2----2-----2----2-------|-2----2------------------|------------2------------|----4-----4-|
|-------------------------|------------4----4-------|-0-----------------------|-------2----|
|-------------------------|-------------------------|-------------------------|-2-----2----|



____________________________________________________| Solo
   

  E  SSS SE  E  SSS SE      E  SSS SE  E  SSS SE      E  SSS SE  E  SSS SE      E  SSS SE  E  SSS SE    
|-----4----------2--------|-----4----------2--------|-------------------------|-----7----------5--------|
|-5------5----------5-----|-5------5----------5-----|-----9----------9--------|--------5----------5-----|
|----4----4-----2----2----|----4----4-----2----2----|--------9----------9-----|----5----5-----5----5----|
|-2----2-----2----2-------|-2----2-----2----2-------|----9----9-----9----9----|-------------------------|
|-------------------------|-------------------------|-7----7-----7----7-------|-7----7-----7----7-------|
|-------------------------|-------------------------|-------------------------|-------------------------|

  E  SSS SE  E  SSS SE      E  SSS SE  E  SSS SE      E  SSS SE  E  SSS SE      E  SSS SE  E  SSS SE    
|-------------------------|-----7----------5--------|-------------------------|-----7----------5--------|
|-----9----------9--------|--------5----------5-----|-----9----------9--------|--------5----------5-----|
|--------9----------9-----|----5----5-----5----5----|--------9----------9-----|----5----5-----5----5----|
|----9----9-----9----9----|-------------------------|----9----9-----9----9----|-------------------------|
|-7----7-----7----7-------|-7----7-----7----7-------|-7----7-----7----7-------|-7----7-----7----7-------|
|-------------------------|-------------------------|-------------------------|-------------------------|

  E  SE  SE  E  SE  SE      E  SE  SE  E  SE  SE      E  SE  SE  E  SE  SE      E  SE  SE  E  SE SE    
|-----4----------4--------|-----5----------5--------|-----5----------5--------|-----2----------2--------|
|--------5----------4-----|--------2----------2-----|--------2----------2-----|--------2----------4-----|
|----6----6-----4----4----|----2----2-----2----2----|----2----2-----2----2----|----2----2-----4----2----|
|-------------------------|-------------------------|-------------------------|-------------------------|
|-4----------2------------|-0----------0------------|-------------------------|------------2------------|
|-------------------------|-------------------------|-4----------4------------|-2----------H------------|

  E  SE  SE  E  E  E  E     E  SE  SE  E  SE  SE      E  SE  SE  E  SSE SS     
|-----4-------------------|-----5----------5--------|-----7----------7---7----|
|--------4------2-----0---|--------5----------5-----|--------7----------------|
|----5----5---------------|----6----6-----6----6----|----8----8-----8---8-----|
|-------------------------|-------------------------|-------------------------|
|------------4-----2------|-0----------0------------|-------------------------|
|-4-----------------------|-------------------------|-7----------7----7-------|






Other soloists join

  E  SSS SE  E  SSS SE      E  SSS SE  E  SS S SE    
|-----7----------7--------|-----8-------------------|
|-------------------------|----------------10-------|
|-9------9----------9-----|------9-9-----------9----|
|----9----9-----9----9----|---10----10---10-----10--|
|-7----7-----7-----7------|-7----7-----7-----7------|
|-------------------------|-------------------------|

  E  SE  SE  E  SE  SE      E  SE  SE  E  SE  SE      E  SE  SE  E  SE  SE      E  SE  SE  E  SE  SE    
|-----4----------4--------|-----0----------5--------|-----5----------5--------|-----2----------2--------|
|--------5----------4-----|--------2----------2-----|--------2----------2-----|--------2----------4-----|
|----6----6-----4----4----|----2----2-----2----2----|----2----2-----2----2----|----2----2-----4----2----|
|-------------------------|-------------------------|-------------------------|-------------------------|
|-4----------2------------|-0----------0------------|-------------------------|------------2------------|
|-------------------------|-------------------------|-4----------4------------|-2----------H------------|

  E  SE  SE  E  E  E  E     E  SE  SE  E  SE  SE      E  SE  SE  E  SSE SS     
|-----4-------------------|-----5----------5--------|-----7----------7---7----|
|--------4------2-----0---|--------5----------5-----|--------7----------------|
|----5----5---------------|----6----6-----6----6----|----8----8-----8---8-----|
|-------------------------|-------------------------|-------------------------|
|------------4-----2------|-0----------0------------|-------------------------|
|-4-----------------------|-------------------------|-7----------7----7-------|

  E  SSS SE  E  SSS SE      E  SSS SE  E  SSS SE       
|-----4----------2--------|-----4----------4--------|
|-5------5----------5-----|--------3----------3-----|
|----4----4-----2----2----|----4----4-----4----4----|
|-2----2-----2----2-------|-2----2-----2----2-------|
|-------------------------|-------------------------|
|-------------------------|-------------------------|



  E  SE  SE  E  SE  SE      E  SE  SE  E  SE  SE      E  SSS SE  E  SSS SE      E  SSS SE  E  SSS SE    
|-----0----------0--------|-----5----------0--4-----|-----4----------4--------|-----4----------4--------|
|--------2----------2-----|--------2----------------|--------4----------3-----|--------3----------3-----|
|----2----2-----2----2----|----2----2-----2----2----|----4----4-----4----2----|----4----4-----4----4----|
|-------------------------|-------------------------|-2----2-----2----2-------|-2----2-----2----2-------|
|-0-----------------------|------------2------------|-------------------------|-------------------------|
|------------4------------|-2-----------------------|-------------------------|-------------------------|

  E  SE  SE  E  SE  SE      E  SE  SE  E  SE  SE      E  SSS SE  E  SSS SE      E  SSS SE  E  SSS SE    
|-----0----------0--------|-----5----------0--4-----|-----4----------4--------|-----4----------4--------|
|--------2----------2-----|--------2----------------|--------4----------3-----|--------3----------3-----|
|----2----2-----2----2----|----2----2-----2----2----|----4----4-----4----2----|----4----4-----4----4----|
|-------------------------|-------------------------|-2----2-----2----2-------|-2----2-----2----2-------|
|-0-----------------------|------------2------------|-------------------------|-------------------------|
|------------4------------|-2-----------------------|-------------------------|-------------------------|








Chorus

  E  SSS SE  E  SSS SE      E  SSS SE  E  SSS SE      E  SSS SE  E  SSS SE      E  SSS SE  E  SSS SE       
|-----4----------4--------|-----4----------4--------|-----4----------4--------|-----0----------2--------|
|-5------5---4------4-----|-3------3---3------3-----|--------5----------5-----|--------2----------4-----|
|----4----4-----4----4----|----4----4-----4----4----|----6----6-----4----4----|----2----2-----4----4----|
|-2----2-----2----2-------|-2----2-----2----2-------|-------------------------|-------------------------|
|-------------------------|-------------------------|-4----4-----2----2-------|-0----0-----2----2-------|
|-------------------------|-------------------------|-------------------------|-------------------------|

  E  SSS SE  E  SSS SE      E  SSS SE  E  SSS E.      E  SE  SE  E  SE  SE      E  E  E  E  E  SE  SE     
|-----4----------4--------|-----4-------------------|-----5----------4--------|-----------------4-------|
|-5------5---4------4-----|-3------3------76--6-----|-5------5----------5-----|--------------------5----|
|----4----4-----4----4----|----4----4-----76--6-----|----5----5-----4----4----|----2-----4-----4----4---|
|-2----2-----2----2-------|-2----2------------------|------------2------------|----4-----4--2-----------|
|-------------------------|------------4----4-------|-0-----------------------|-------2-----------------|
|-------------------------|-------------------------|-------------------------|-2-----2-----------------|


  E  SE  SE  E  SE  SE      E  E  E  E   E  SSS SE  E  SSS SE      E  SSS SE  E  SSS SE     
|-----5----------4--------|------------|-----4----------2--------|-----4----------2--------|
|-5------5----------5-----|------------|-5------5----------5-----|-5------5----------5-----|
|----5----5-----4----4----|----2-----4-|----4----4-----2----2----|----4----4-----2----2----|
|------------2------------|----4-----4-|-2----2-----2----2-------|-2----2-----2----2-------|
|-0-----------------------|-------2----|-------------------------|-------------------------|
|-------------------------|-2-----2----|-------------------------|-------------------------|





Break (Instrumental)


  E  SSS SE  E  SSS SE      E  SE  SE  E  SE  SE      E  SE  SE  E  SE  SE      E  SE  SE  E  SE  SE    
|-----4----------4--------|-----4----------4--------|-----4----------4--------|-----5----------5--------|
|-5------5----------5-----|-5------5----------5-----|-3------3----------3-----|--------2----------2-----|
|----4----4-----4----4----|----4----4-----4----4----|----4----4-----4----4----|----2----2-----2----2----|
|-2----2-----2----2-------|-2----------2------------|-2-----------------------|-------------------------|
|-------------------------|-------------------------|-------------------------|-0-----------------------|
|-------------------------|-------------------------|-------------------------|-------------------------|

  E  SE  SE  E  SE  SE      E  SE  SE  E  SE  SE      E  SE  SE  E  SE  SE      E  SE  SE  E  SE  SE    
|-----5----------5--------|-----5----------5--------|-----5----------5--------|-----2----------0--------|
|--------2----------2-----|--------2----------2-----|--------2----------2-----|--------2----------2-----|
|----2----2-----2----2----|----2----2-----2----2----|----2----2-----2----2----|----3----3-----3----3----|
|-4-----------------------|-3-----------------------|-2-----------------------|-------------------------|
|------------4------------|------------4------------|------------0------------|-------------------------|
|-------------------------|-------------------------|-------------------------|-2-----------------------|

  E  SE  SE  E  SE  SE      w                         E  SE SE  E  SE  SE      E  SE  SE  E  SE  SE    
|-----2----------2--------|-2-----------------------|-----2---------2---------|----4----------4---------|
|--------4----------4-----|-4-----------------------|--------5---------5------|-------5----------5------|
|----2----2-----2----2----|-2-----------------------|----2----2----2----2-----|---4----4-----4----4-----|
|-------------------------|-------------------------|-2----------2------------|-2---------2-------------|
|-2----------2------------|-2-----------------------|-------------------------|-------------------------|
|-------------------------|-------------------------|-------------------------|-------------------------|

  E  SE  SE  E  SE  SE      E  SE  SE  E  SE  SE    
|-----2----------2--------|-----4----------4--------|
|--------5----------5-----|--------5----------5-----|
|----2----2-----2----2----|----4----4-----4----4----|
|-2----------2------------|-2----------2------------|
|-------------------------|-------------------------|
|-------------------------|-------------------------|






Group of soloists

  E  SSS SE  E  SSS SE      E  SSS SE  E  SS S SE    
|-----7----------7--------|-----8-------------------|
|-------------------------|----------------10-------|
|-9------9----------9-----|------9-9-----------9----|
|----9----9-----9----9----|---10----10---10-----10--|
|-7----7-----7-----7------|-7----7-----7-----7------|
|-------------------------|-------------------------|

  E  SE  SE  E  SE  SE      E  SE  SE  E  SE  SE      E  SE  SE  E  SE  SE      E  SE  SE  E  SE  SE    
|-----4----------4--------|-----0----------5--------|-----5----------5--------|-----2----------2--------|
|--------5----------4-----|--------2----------2-----|--------2----------2-----|--------2----------4-----|
|----6----6-----4----4----|----2----2-----2----2----|----2----2-----2----2----|----2----2-----4----2----|
|-------------------------|-------------------------|-------------------------|-------------------------|
|-4----------2------------|-0----------0------------|-------------------------|------------2------------|
|-------------------------|-------------------------|-4----------4------------|-2----------H------------|

  E  SE  SE  E  E  E  E     E  SE  SE  E  SE  SE      E  SE  SE  E  SSE SS     
|-----4-------------------|-----5----------5--------|-----7----------7---7----|
|--------4------2-----0---|--------5----------5-----|--------7----------------|
|----5----5---------------|----6----6-----6----6----|----8----8-----8---8-----|
|-------------------------|-------------------------|-------------------------|
|------------4-----2------|-0----------0------------|-------------------------|
|-4-----------------------|-------------------------|-7----------7----7-------|


  E  SSS SE  E  SSS SE      E  SSS SE  E  SSS SE       
|-----4----------2--------|-----4----------4--------|
|-5------5----------5-----|--------3----------3-----|
|----4----4-----2----2----|----4----4-----4----4----|
|-2----2-----2----2-------|-2----2-----2----2-------|
|-------------------------|-------------------------|
|-------------------------|-------------------------|


  E  SE  SE  E  SE  SE      E  SE  SE  E  SE  SE      E  SSS SE  E  SSS SE      E  SSS SE  E  SSS SE    
|-----0----------0--------|-----5----------0--4-----|-----4----------4--------|-----4----------4--------|
|--------2----------2-----|--------2----------------|--------4----------3-----|--------3----------3-----|
|----2----2-----2----2----|----2----2-----2----2----|----4----4-----4----2----|----4----4-----4----4----|
|-------------------------|-------------------------|-2----2-----2----2-------|-2----2-----2----2-------|
|-0-----------------------|------------2------------|-------------------------|-------------------------|
|------------4------------|-2-----------------------|-------------------------|-------------------------|

  E  SE  SE  E  SE  SE      E  SSS SE  E  SSS SE      E  SSS SE  E  SSS SE      E  SSS SE  E  SSS SE    
|-----0----------0--------|-----5----------0--4-----|-----4----------4--------|-----4----------4--------|
|--------2----------2-----|--------2----------------|--------4----------3-----|--------3----------3-----|
|----2----2-----2----2----|----2----2-----2----2----|----4----4-----4----2----|----4----4-----4----4----|
|-------------------------|-------------------------|-2----2-----2----2-------|-2----2-----2----2-------|
|-0-----------------------|------------2------------|-------------------------|-------------------------|
|------------4------------|-2-----------------------|-------------------------|-------------------------|








Chorus

  E  SSS SE  E  SSS SE      E  SSS SE  E  SSS SE      E  SSS SE  E  SSS SE      E  SSS SE  E  SSS SE       
|-----4----------4--------|-----4----------4--------|-----4----------4--------|-----0----------2--------|
|-5------5---4------4-----|-3------3----------3-----|--------5----------5-----|--------2----------4-----|
|----4----4-----4----4----|----4----4-----4----4----|----6----6-----4----4----|----2----2-----4----4----|
|-2----2-----2----2-------|-2----2-----2----2-------|-------------------------|-------------------------|
|-------------------------|-------------------------|-4----4-----2----2-------|-0----0-----2----2-------|
|-------------------------|-------------------------|-------------------------|-------------------------|

  E  SSS SE  E  SSS SE      E  SSS SE  E  SSS E.      E  SE  SE  E  SE  SE      E  E  E  E  E  SE  SE     
|-----4----------4--------|-----4-------------------|-----5----------4--------|-----------------4-------|
|-5------5---4------4-----|-3------3------76--6-----|-5------5----------5-----|--------------------5----|
|----4----4-----4----4----|----4----4-----76--6-----|----5----5-----4----4----|----2-----4-----4----4---|
|-2----2-----2----2-------|-2----2------------------|------------2------------|----4-----4--2-----------|
|-------------------------|------------4----4-------|-0-----------------------|-------2-----------------|
|-------------------------|-------------------------|-------------------------|-2-----2-----------------|

--

  E  SSS SE  E  SSS SE      E  SSS SE  E  SSS SE      E  SSS SE  E  SSS SE      E  SSS SE  E  SSS SE       
|-----4----------4--------|-----4----------4--------|-----4----------4--------|-----0----------2--------|
|-5------5---4------4-----|-3------3---3------3-----|--------5----------5-----|--------2----------4-----|
|----4----4-----4----4----|----4----4-----4----4----|----6----6-----4----4----|----2----2-----4----4----|
|-2----2-----2----2-------|-2----2-----2----2-------|-------------------------|-------------------------|
|-------------------------|-------------------------|-4----4-----2----2-------|-0----0-----2----2-------|
|-------------------------|-------------------------|-------------------------|-------------------------|

  E  SSS SE  E  SSS SE      E  SSS SE  E  SSS E.      E  SE  SE  E  SE  SE      E  E  E  E       
|-----4----------4--------|-----4-------------------|-----5----------4--------|-------------|
|-5------5---4------4-----|-3------3------76--6-----|-5------5----------5-----|-------------|
|----4----4-----4----4----|----4----4-----76--6-----|----5----5-----4----4----|----2-----4--|
|-2----2-----2----2-------|-2----2------------------|------------2------------|----4-----4--|
|-------------------------|------------4----4-------|-0-----------------------|-------2-----|
|-------------------------|-------------------------|-------------------------|-2-----2-----|










Outro (no voice or percussion)

  E  SE  SE  E  SE  SE      E  SE  SE  E  SE  SE      E  SE  SE  E  SE  SE      E  SE  SE  E  SE  SE    
|-----4----------4--------|-----2----------2--------|-----4----------4--------|-----7----------5--------|
|-5------5----------5-----|--------5----------5-----|-5------5----------5-----|--------5----------5-----|
|----4----4-----4----4----|----2----2-----2----2----|----4----4-----4----4----|----5----5-----5----5----|
|-------------------------|-------------------------|-------------------------|-------------------------|
|-------------------------|-------------------------|-------------------------|-------------------------|
|-------------------------|-------------------------|-------------------------|-------------------------|

  E  SE  SE  E  SE  SE      E  SE  SE  E  SE  SE      E  SE  SE  E  SE  SE      E  SE  SE  E  SE  SE    
|-----4----------4--------|-----2----------2--------|-----4----------4--------|-----7----------5--------|
|-5------5----------5-----|--------5----------5-----|-5------5----------5-----|--------5----------5-----|
|----4----4-----4----4----|----2----2-----2----2----|----4----4-----4----4----|----5----5-----5----5----|
|-------------------------|-------------------------|-------------------------|-------------------------|
|-------------------------|-------------------------|-------------------------|-------------------------|
|-------------------------|-------------------------|-------------------------|-------------------------|



Percussion joins (still no voice)

  E  SSS SE  E  SSS SE      E  SSS SE  E  SSS SE      E  SSS SE  E  SSS SE      E  SSS SE  E  SSS SE    
|-----4----------4--------|-----2----------2--------|-----4----------4--------|-----7----------5--------|
|-5------5----------5-----|--------5----------5-----|-5------5----------5-----|--------5----------5-----|
|----4----4-----4----4----|----2----2-----2----2----|----4----4-----4----4----|----5----5-----5----5----|
|-------------------------|-------------------------|-------------------------|-------------------------|
|-------------------------|-0----0-----0----0-------|-2----2-----2----2-------|-0----0-----0----0-------|
|-0----0-----0----0-------|-------------------------|-------------------------|-------------------------|

  E  SSS SE  E  SSS SE      E  SSS SE  E  SSS SE      E  SSS SE  E  SSS SE      E  SSS SE  E  SSS SE    
|-----4----------4--------|-----2----------2--------|-----4----------4--------|-----7----------5--------|
|-5------5----------5-----|--------5----------5-----|-5------5----------5-----|--------5----------5-----|
|----4----4-----4----4----|----2----2-----2----2----|----4----4-----4----4----|----5----5-----5----5----|
|-------------------------|-------------------------|-------------------------|-------------------------|
|-------------------------|-0----0-----0----0-------|-2----2-----2----2-------|-0----0-----0----0-------|
|-0----0-----0----0-------|-------------------------|-------------------------|-------------------------|





Chorus joins (Repeat until fade out) 

  E  SSS SE  E  SSS SE      E  SSS SE  E  SSS SE      E  SSS SE  E  SSS SE      E  SSS SE  E  SSS SE    
|-----4----------4--------|-----2----------2--------|-----4----------4--------|-----7----------5--------|
|-5------5----------5-----|--------5----------5-----|-5------5----------5-----|--------5----------5-----|
|----4----4-----4----4----|----2----2-----2----2----|----4----4-----4----4----|----5----5-----5----5----|
|-------------------------|-------------------------|-------------------------|-------------------------|
|-------------------------|-0----0-----0----0-------|-2----2-----2----2-------|-0----0-----0----0-------|
|-0----0-----0----0-------|-------------------------|-------------------------|-------------------------|

  E  SSS SE  E  SSS SE      E  SSS SE  E  SSS SE      E  SSS SE  E  SSS SE      E  SSS SE  E  SSS SE    
|-----4----------4--------|-----2----------2--------|-----4----------4--------|-----7----------5--------|
|-5------5----------5-----|--------5----------5-----|-5------5----------5-----|--------5----------5-----|
|----4----4-----4----4----|----2----2-----2----2----|----4----4-----4----4----|----5----5-----5----5----|
|-------------------------|-------------------------|-------------------------|-------------------------|
|-------------------------|-0----0-----0----0-------|-2----2-----2----2-------|-0----0-----0----0-------|
|-0----0-----0----0-------|-------------------------|-------------------------|-------------------------|








Login or Register to remove this ad.