Our House Below (Karigurashi no Arrietty) Guitar Tab

Submitted: Feb 04, 2014 by Basisti94 (Last updated: Feb 05, 2014)

5
Average: 5 (5 votes)
Download | Listen
Game: Karigurashi no Arrietty
Composer(s): C├ęcile Corbel
Style: Arrangement, Fingerstyle

AutoScroll: Slow | Medium | Fast
                          Our House Below

Karigurashi no Arrietty                                 
Cecile Corbel
Guitar arrangement by Basisti94 (Miro Laaksonen)
4.2.2013

-----------------------------------------
If you want to simply play guitar along while singing or something,
chords are C, G and F all the way through the song.
----------------------------------------

Tempo ~ 180
Time Signature: 12/8

     Q    E  Q    E  Q    Q.     E     Q    E  Q    Q.     E  E   E  E   
E||---------------------------------|-----------------------------------|
B||----------1-------3----0---------|-------0---------------------------|
G||-------0-------0-------0------0--|--2-------2----0----------------0--|
D||-------2-------2-------0------0--|-------3-----------------2h--3-----|
A||--3------------------------------|----------------------2------------|
E||------------------3--------------|--1------------3-------------------|


  Q    E  Q    E  Q    Q.     E     Q    E  Q    Q.     E  Q    E   
---------------------------------|---------------------------------|
----------1-------3----0---------|---------------------------------|
-------0-------0-------0------0--|----------0----------------------|
-------2-------2-------0------0--|--2------------0--------------2--|
--3------------------------------|-------3-----------------3-------|
------------------3--------------|--1------------3------3-------3--|


  Q    E  Q    E  Q    Q.     E     Q    E  Q    Q.     E  E   E  E   
---------------------------------|-----------------------------------|
----------1-------3----0---------|-------0---------------------------|
-------0-------0-------0------0--|--2-------2----0----------------0--|
-------2-------2-------0------0--|-------3-----------------2h--3-----|
--3------------------------------|----------------------2------------|
------------------3--------------|--1------------3-------------------|


  Q    E  E   E  E  Q    Q.     E     Q    Q.     Q    E  E  E  E  E   
-----------------------------------|-------------------0--------------|
-----------------------------------|-------0------0-------3--1--------|
-------0---------0-----------------|-------0------0-------------2--0--|
----------2h--3-----0--------------|-------0------0-------------------|
--3--------------3-------0------0--|----------------------------------|
--------------------1--------------|--3-------------------------------|


  Q    E  Q    E  Q    Q.     E     Q    E  Q    E  Q    Q.     E   
----------3----3--3----3------3--|--5-------1----3-----------------|
------------------0----0------0--|-----------------------0------0--|
-------0-------0--0----0------0--|-------2-------2-------0------0--|
-------2-------2-----------------|-------3-------3-------0------0--|
--3------------------------------|---------------------------------|
------------------3--------------|--1---------------3--------------|


  Q    E  Q    E  Q    Q.     E     Q    E  Q    E  Q    Q.     E   
----------3----3--3----3------3--|--5----3--1----3-----------------|
------------------0----0------0--|-----------------------0------0--|
-------0-------0--0----0------0--|---------------2-------0------0--|
-------2-------2-----------------|---------------3-------0------0--|
--3------------------------------|---------------------------------|
------------------3--------------|--1---------------3--------------|


  Q    E  Q    E  Q    E  Q    E     Q    E  Q    E  Q    E  Q    E   
----------0-----------------------|----------0----3------------------|
-------1-------3-------1--0----1--|-------3------------------3----1--|
-------0-------0-------0-------0--|-------2-------2-------0-------0--|
-------2-------2-------0-------0--|-------3-------3-------0-------0--|
--3-------------------------------|----------------------------------|
------------------3---------------|--1---------------3---------------|


  Q    Q.     E  Q    E  Q    E     Q    Q.     E  Q    E  Q    E   
-------------------------0-------|---------------------------------|
-----------------3------------3--|-------1-------------------------|
-------0------0-------0-------0--|-------2------2--0-------2-------|
-------2------2-------0-------0--|-------3------3-------0-------0--|
--3------------------------------|----------------------2-------2--|
-----------------3---------------|--1--------------3---------------|


  Q    E  Q    E  Q    E  Q    E     Q    E  Q    E  Q    E  Q    E   
----------5----3------------------|----------0----3------------------|
--------------------------3----1--|-------3---------------1--0----1--|
--5------------5-------0-------0--|-------2-------2-------0-------0--|
--5----5-------5-------0-------0--|-------3-------3-------0-------0--|
--3-------------------------------|----------------------------------|
------------------3---------------|--1---------------3---------------|


  Q    E  Q    E  Q    E  Q    E     Q    E  Q    E  Q    E  Q    E   
----------5----3------------------|----------0----3-------5--3-------|
--------------------------3----1--|-------3--------------------------|
-------5-------5-------0-------0--|-------2-------2-------0-------0--|
-------5-------5-------0-------0--|-------3-------3-------0-------0--|
--3-------------------------------|----------------------------------|
------------------3---------------|--1---------------3---------------|


  Q    E  Q    E  Q    Q.     E     Q    E  E  E  E  Q    E  Q    E   
----------0----------------------|-------------0--3------------------|
---------------3--------------1--|----------3-------------1--0----1--|
-------0-------0-------0------0--|-------2--------2-------0-------0--|
-------2-------2-------0------0--|-------3--------3-------0-------0--|
--3------------------------------|-----------------------------------|
------------------3--------------|--1----------------3---------------|


  Q    E  Q    E  Q    Q.     E     Q    Q.     E  E  E  E  E  E  E   
----------0----------------------|-----------------------------------|
---------------3--------------1--|-----------------------------------|
-------0-------0-------0------0--|-------2------2-----0--0--0--------|
-------2-------2-------0------0--|-------3------3--0-----------0-----|
--3------------------------------|-----------------2--------2--------|
------------------3--------------|--1--------------3--------------3--|


  E  E  E  Q.     Q    Q.     E     Q    E  Q    H        E  E  E   
--------0--3---------------------|------------------------0--------|
-----3---------------------------|-------0-------------------3--1--|
--------0---------0----0------0--|--2-------2----0-----------------|
-----------------------0---------|--3-------3----0--------2--------|
--3------------------------------|--3-------3----2-----------------|
---------------------------------|---------------------------------|


  Q    Q.     E  Q    Q.     E     Q    E  Q    Q    E  E  E  E  E   
--------------------------------|--0-------0---------0-----------0--|
--0----1------1-----------------|--1----1--1----3-------3--1--3-----|
-------0------0--0----0------0--|--0-------0----0-------------------|
----------------------0---------|--------------------------2--------|
--3-----------------------------|-----------------------------------|
--------------------------------|-----------------------------------|


  Q    H        Q    Q.     E     Q    E  Q    Q    E  E  E  E  E   
--0----------------------------|--------------------0--------------|
-------1--------1----0---------|-------0---------------3--1--------|
-------0--------0----0------0--|--2-------2----0-------------2--0--|
---------------------0---------|--3-------3----0-------------------|
--3----------------------------|--3-------3----2-------------------|
-------------------------------|-----------------------------------|


                                      ^              ^               
  Q    E  E   E  E  Q    Q    Q       Q    Q.     E  Q    Q.     E   
--------------------1----0---------|--------------------------------|
--------------------1----1----3----|--1--------------3--------------|
-----------------0------------4----|--0--------------0--------------|
----------2h--3-----3----2----0----|--2--------------0--------------|
--3----3---------------------------|--3----3------3-----------------|
-----------------------------------|-----------------3----3------3--|


  Q    Q.     E  Q    Q.     E     Q    Q.     E  Q    Q.     E   
--------------------------------|--------------------------------|
--1--------------0--------------|--------------------------------|
--2--------------0--------------|--2--------------0--------------|
--------------------------------|--3--------------0--------------|
--------------------------------|--------------------------------|
--1----1------1--3----3------3--|--1----1------1--3----3------3--|


  Q    Q.     E  Q    Q.     E     Q    Q.     E  Q    Q.     E   
--------------------------------|--------------------------------|
--------------------------------|--------------------------------|
-----------------0--------------|--2--------------0--------------|
--2--------------2--------------|--3--------------0--------------|
--3----3------3--3----3------3--|--------------------------------|
--------------------------------|--1----1------1--3----3------3--|


  E  E  E  E  E  E  Q    Q.     E     E  E  E  E  E  E  Q    Q.     E   
-----------------------------------|-----------------------------------|
-----1-----1-----------------------|-----------------------------------|
-----2--------2--0-----------------|--------------------0--------------|
-----------------------------------|-----2-----2--0--------------------|
-----------------------------------|-----------------3-----------------|
--1-----1--------1--3----3------3--|--1-----1-----------3----3------3--|


  Q    Q.     E  Q    Q.     E     Q    Q.     E  Q    Q.     E   
--------------------------------|--------------------------------|
-----------------0--------------|-----------------0--------------|
--2--------------0--------------|--2--------------0--------------|
--3-----------------------------|--3-----------------------------|
--------------------------------|--------------------------------|
--1----1------1--3----3------3--|--1----1------1--3----3------3--|


  Q    Q.     E  Q    Q.     E     Q    E  Q    E  Q    E  E  E  E   
--3----3------3-----------------|-----------------------------------|
----------------------0------0--|-------0---------------------------|
-------0------0-------0------0--|--2-------2----0-------------------|
-------2------2-------0------0--|-------3---------------0--2--0-----|
--3-----------------------------|--------------------------------3--|
-----------------3--------------|--1---------------3----------------|


  Q    E  Q    E  Q    Q.     E     E  E  E  Q    E  Q    E  Q    E   
----------0----3-----------------|-------------------0----3--5----0--|
-------3----------3----3---------|-----1-----1----3------------------|
-------0-------0-------0------0--|--2-----2-------2-------0-------0--|
-------2-------2-------0------0--|--------3-------3-------0-------0--|
--3------------------------------|-----------------------------------|
------------------3--------------|--1----------------3---------------|


  E  E  E  Q    E  Q    E  Q    E     Q    E  Q    E  Q    E  Q    E   
-----------------------------------|----------0----3------------------|
-----------1----3----------1----0--|--1----3------------------3----1--|
--------0-----------------------0--|---------------2----------0-------|
-----2---------------------0-------|----------3------------0----------|
--3---------------------2----------|----------------------------------|
-------------------3---------------|--1---------------3---------------|


  E  E  E  Q    E  Q    E  Q    E     Q    Q.     E  Q    Q.     E   
------------------------0--3-------|--------------------------------|
-----------1----3--3---------------|--1-----------------------------|
--------0-----------------------0--|-------2------2-------0------0--|
-----2---------------------0-------|-------3------3-------0------0--|
--3--------------------------------|--------------------------------|
-------------------3---------------|--1--------------3--------------|


  Q    E  Q    E  Q    E  Q    E     Q    E  Q    E  Q    E  Q    E   
----------5----3------------------|----------0----3------------------|
--------------------------3----1--|-------3---------------1--0----1--|
--5------------5-------0-------0--|-------2-------2-------0-------0--|
-------5-------5-------0-------0--|-------3-------3-------0-------0--|
--3-------------------------------|----------------------------------|
------------------3---------------|--1---------------3---------------|


  Q    E  Q    E  Q    E  Q    E     Q    E  Q    E  E  E  Q.     E   
----------5----3------------------|----------0----3-----5--3---------|
--------------------------3----1--|-------3--------------------------|
-------5-------5-------0-------0--|-------2-------2--------0------0--|
-------5-------5-------0-------0--|-------3-------3--------0------0--|
--3-------------------------------|----------------------------------|
------------------3---------------|--1---------------3---------------|


  Q    E  Q    E  Q    Q.     E     Q    E  E  E  E  Q    E  Q    E   
----------0----------------------|-------------0--3------------------|
---------------3-------0------1--|----------3-------------1--0----1--|
-------0-------0-------0------0--|-------2--------2-------0-------0--|
-------2-------2-------0------0--|-------3--------3-------0-------0--|
--3------------------------------|-----------------------------------|
------------------3--------------|--1----------------3---------------|


  Q    E  Q    E  Q    Q.     E     Q    E  Q    E  Q    E  Q    E   
----------0----------------------|----------------------------------|
---------------3-------0------1--|--------------------------0-------|
-------0-------0-------0------0--|------------------2---------------|
-------2-------2-------0------0--|----------3------------0-------0--|
--3------------------------------|-------3-------3------------------|
------------------3--------------|--1---------------3---------------|


  Q    E  E  E  E  E  E  E  E  E  E     Q    E  E  E  E  Q    E  Q    E   
-------------------------------------|-----------------------------------|
-------------------------------------|----------1--1--3--1----0--0-------|
-------------------0--------2--------|-------0--------0-------0-------0--|
----------2--0--------2--------2--0--|-------2--------2-------0-------0--|
--3----0--------3--------3-----------|--3--------------------------------|
--1----------------3-----------------|-------------------3---------------|


  Q    E  Q    E  Q    E  E   E  E     Q    E  E  E  E  Q    E  Q    E   
------------------------------------|-----------------------------------|
-------0----------------------------|----------1--1--3--1----0--0-------|
--2-------2----0-----------------0--|-------0--------0-------0-------0--|
-------3------------------2h--3-----|-------2--------2-------0-------0--|
-----------------------2------------|--3--------------------------------|
--1---------------3-----------------|-------------------3---------------|


  Q    E  Q    E  Q    E  E  E   E     Q    E  E  E  E  Q    E  Q    E   
------------------------------------|-----------------------------------|
------------------------------------|----------1--1--3--1----0--0-------|
-----------------------0------------|-------0--------0-------0-------0--|
--2----3--2----0-------0-----0h--2--|-------2--------2-------0-------0--|
-------0-------0----------3---------|--3--------------------------------|
--1---------------3-----------------|-------------------3---------------|


  Q    E  Q    E  Q    E  E   E  E     Q    E  E   E  E  Q    Q    Q     
------------------------------------|--------------------1----0---------|
-------0----------------------------|--------------------1----1----3----|
--2-------2----0-----------------0--|-----------------0------------4----|
-------3-------3----------2h--3-----|----------2h--3-----3----2----0----|
-----------------------2------------|-------0---------------------------|
--1---------------3-----------------|--1--------------------------------|


  Q    E  Q    E  Q    E  Q    E     Q    E  Q    E  Q    E  Q    E   
----------------------------------|---------------0--0---------------|
--1------------1--0---------------|----------1------------3--0-------|
----------0--------------------0--|-------2-----------------------0--|
-------2------------------0-------|--------------------------0-------|
--3--------------------2----------|-----------------------2----------|
------------------3---------------|--1---------------3---------------|


  Q    E  Q    E  Q    E  Q    E     Q    E  Q    E  Q    E  Q    E   
----------0----0------------------|-----------------------0--3-------|
----------------------------------|---------------1---------------3--|
--2----2-----------------------0--|----------0--------------------0--|
--------------------------0-------|-------2------------------0-------|
----------3------------2----------|--3--------------------2----------|
--1---------------3---------------|------------------3---------------|


  Q    E  Q    E  Q    E  Q    E     Q    E  Q    E  Q    E  Q    E   
----------------------------------|-------------------------------0--|
--------------------------0-------|------------------0----1--3-------|
----------2----2--0------------0--|----------0----2------------------|
---------------3----------0-------|-------2------------------0-------|
-------0--3------------2----------|----------3-----------------------|
--1---------------3---------------|--1---------------3---------------|


  Q    E  Q    E  Q    E  Q    E     Q    E  E  E  E  Q    E  Q    E   
--3----3--5----7--3----0----------|-------------0--3------------------|
----------------------------------|----------3--------3----3--0----1--|
----------5--------------------0--|-------2------------------------0--|
--3-----------------------0-------|-------3-------------------0-------|
-----------------------2----------|------------------------2----------|
------------------3---------------|--1----------------3---------------|


  Q    E  Q    E  Q    E  Q    E     Q    E  E  E  E  E  E  E  E  E  E   
----------------------------------|-------------------------------------|
----------------------------------|-------------------------------------|
------------------2-------0-------|-------------------0--------2--------|
--0-------3--------------------0--|----------2--0--------2--------2--0--|
-------0-------3-------2----------|-------0--------3--------3-----------|
--1---------------3---------------|--1----------------3-----------------|


  H        W                            
----------------------------|---------||
----------------------------|---------||
----------------------------|---------||
----------------------------|---------||
--3-------------------------|---------||
----------------------------|---------||

Arrietty has such a great soundtrack


Duration Legend
---------------
W - whole
H - half
Q - quarter
E - 8th
S - 16th
T - 32nd
X - 64th
. - note dotted
|-n-|  - n-tuplets


Tablature Legend
----------------
L - tied note
x - dead note
g - grace note
(n) - ghost note
> - accentuded note
NH - natural harmonic
AH - artificial harmonic
TH - tapped harmonic
SH - semi harmonic
PH - pitch harmonic
h - hammer on
p - pull off
b - bend
S - shift slide
s - legato slide
/ -  slide into from below or out of upwards
\ -  slide into from above or out of downwards
~ - vibrato
W - wide vibrato
tr - trill
TP - tremolo picking
T - tapping
S - slap
P - pop
< - fade in
^ - brush up
v - brush down
Login or Register to remove this ad.

1 comment on Our House Below

a bit hard for me to play but

5

a bit hard for me to play but man is it fun.