Ads

Arrietty's Song (Guitaryuya Version) (Karigurashi no Arrietty) Guitar Tab

Submitted: Apr 16, 2011 by 60NCA10 (Last updated: Apr 16, 2011)

4.75
Average: 4.8 (8 votes)
Download | Listen
Game: Karigurashi no Arrietty
Composer(s): Cécile Corbel
Style: Arrangement, Fingerstyle, Transcription

This song is also called Arietti no Uta

Click here for a video example.

AutoScroll: Slow | Medium | Fast



                      KARIGURASHI NO ARIETTI
                        "Arietti no Uta"
                        (Arrietty's song)


                  Original song by: Cécile Corbel

                      Arranged by: Guitaryuya
                   Transcribed by: Gonçalo Martins
                         April 16th 2011




Tuning: eADGBE
Capo: 3rd fret

Tempo: 130 bpm
Time Signature: 3/4



 Intro: 

     Em                  D                   Em                 D               
     Q    E  E  E  E     Q    E  E  E  E     Q    E  E  Q       Q    Q    Q     
E||-------0--2--3--7--|--L-------0--2--5--|--3----0--2--3----|--5----3----2----|
B||-------------------|-------3-----------|------------------|-----------------|
G||-------------------|-------------------|------------------|-----------------|
D||-------------------|--0----------------|------------------|--0--------------|
A||-------------------|-------------------|------------------|-----------------|
E||--0----------------|-------------------|--0---------------|-----------------|


  Em                  D                   Em                 D               
  Q    E  E  E  E     Q    E  E  E  E     Q    E  E  Q       Q    Q    Q     
--3----0--2--3--7--|--L-------0--2--5--|--3----0--2--3----|--5----3---------|
-------------------|-------3-----------|------------------|-----------------|
-------------------|-------------------|------------------|-----------------|
-------------------|--0----------------|------------------|--0---------2----|
-------------------|-------------------|------------------|-----------------|
--0----------------|-------------------|--0---------------|-----------------|



 Phrase 1:

  Em                D                 Em                A                
  ^                 ^                 ^                                  
  Q    Q    Q       Q    Q    Q       Q    Q    Q       E  E  Q    Q     
-----------------|-----------------|-----------------|------------------|
--0----0----0----|-----------------|--0---------3----|--2--0------------|
--0--------------|--2----2----0----|--0--------------|--------2---------|
--2--------------|--0----0---------|--2----2---------|-------------2----|
--2--------------|--0--------------|--2--------------|--0---------------|
--0--------------|-----------------|--0--------------|------------------|


  Em                D                  Em               D                
  ^                 ^                  ^                                 
  Q    Q    Q       Q    E  E  Q       Q    H           Q    E  E  Q     
-----------------|------------------|----------------|----------2-------|
--0----0----0----|------------------|--0----3--------|-------------3----|
--0--------------|--2-------0--2----|--0-------------|-------2----------|
--2--------------|--4----4----------|--2-------------|--0---------------|
--2--------------|--0---------------|--2-------------|------------------|
--0--------------|------------------|--0-------------|------------------|


  Em                D                  Em                 D                
  ^                 ^                                                      
  H        E  E     Q    E  E  Q       Q    E  E  Q       Q    E  E  Q     
--0-----------0--|------------------|------------------|----------2-------|
--0--------0-----|--3---------------|----------0-------|-------------3----|
--0--------------|--2----2--2--2----|--0----------0----|-------2----------|
--2--------------|--0---------------|-------2----------|--0---------------|
--2--------------|------------------|------------------|------------------|
--0--------------|------------------|--0---------------|------------------|


  Em                Em               D                 Em              
                    ^                                                  
  Q    Q    Q       H        Q       Q    Q    Q       E  E  H         
-----------------|----------------|-----------------|-----------------|
------------0----|--0--------0----|-----------------|-----0-----------|
-----------------|--0-------------|--2----2----0----|--2--------------|
-------2---------|--2-------------|--0--------------|--0-----2--------|
-----------------|--2-------------|-----------------|-----------------|
--0--------------|--0-------------|-----------------|-----------------|



 Phrase 2:

  Em                   Am                 G                 C               
                                          ^                 ^               
  E  E  E  E  E  E     Q    E  E  Q       Q    Q    Q       Q    Q    Q     
--0-----2-----3-----|-------------0----|-----------------|--0---------0----|
-----0-----0-----0--|----------0-------|--3---------3----|--1--------------|
--------------------|------------------|--0----0---------|--0----2---------|
--------------------|-------2----------|--0--------------|--2--------------|
--------------------|--0----------0----|--2--------------|--3--------------|
--0-----2-----3-----|------------------|--3--------------|-----------------|


  D                 C                 D                 C               
  ^                 ^                 ^                 ^               
  Q.     E  Q       Q    Q    Q       Q    Q    Q       Q    Q    Q     
--2------0-------|--0---------0----|-----------------|--0--------------|
--3---------3----|--1----1---------|--3---------3----|--1----3----1----|
--2--------------|--0--------------|--2----2---------|--0--------------|
--0--------------|--2--------------|--0--------------|--2--------------|
-----------------|--3--------------|-----------------|--3--------------|
-----------------|-----------------|-----------------|-----------------|


  D                
  ^                
  H        E  E   
-----------------|
--3-----------1--|
--2--------2-----|
--0--------------|
-----------------|
-----------------|



 1st Chorus: (Play Twice)

   D                    C                 G                   F                 
   ^                    ^                 ^                   ^                 
   E  E  E  E  E  E     H        E  E     Q    E  E  E  E     Q    E  E  E  E   
------------------3--|--0--------------|----------0--------|-------------------|
---3--3--3--1--3-----|--1--------3--1--|--3----3-----3--1--|-------------------|
---2-----------------|--0--------------|--0----------------|--2----0-----------|
---0-----------------|--2--------------|--0----------------|--3----------3-----|
---------------------|--3--------------|--2----------------|--3-------3-----3--|
---------------------|-----------------|--3----------------|--1----------------|


  G                   F                 G                  Em                  
  ^                   ^                 ^                
  Q    E  E  E  E     H        E  E     Q    E  E  Q       E  E  E  E  E  E    
----------0--------|-----------------|------------------|---------------------|
--3----3-----3--1--|--------------1--|--3---------------|-----------0---------|
--0----------------|--2--------2-----|--0-------0-------|--------0-----0------|
--0----------------|--3--------------|--0----0-----0----|-----2-----------2---|
--2----------------|--3--------------|--2---------------|---------------------|
--3----------------|--1--------------|--3---------------|--0------------------|



 Phrase 3:

     Am                   G                   Am                  D                
                                              ^                   ^                
     E  E  E  E  E  E     E  E  E  E  Q       E  E  E  E  Q       E  E  Q    Q     
--0-----0-----0-----|-------------------|--0-----------3----|--2--0------------|
--------0-----1-----|--3-----3-----1----|--0-----1----------|--3-----3---------|
--------------------|--------0----------|--2-----2----------|--2----------2----|
-----2-----2-----2--|-----0-----0-------|--2--2-----2-------|--0---------------|
--0-----2-----3-----|-------------------|--0----------------|------------------|
--------------------|--3----------------|-------------------|------------------|


  Am                   G                   Am                 D                 
                                           ^                  ^                 
  E  E  E  E  E  E     E  E  E  E  Q       E  E  Q.     E     E  E  E  E  E  E  
--0-----0-----0-----|-------------------|--0-----3---------|--2--0-----------0--|
--------0-----1-----|--3-----3-----1----|--0-----0---------|--3-----3-----3-----|
--------------------|--------0----------|--2---------------|--2--------2--------|
-----2-----2-----2--|-----0-----0-------|--2--2---------2--|--0-----------------|
--0-----2-----3-----|-------------------|--0---------------|--------------------|
--------------------|--3----------------|------------------|--------------------|



 Phrase 4:

  Am                   G                  Am                   G                
                                                               ^                
  E  E  E  E  E  E     Q    E  Q    E     E  E  E  E  E  E     Q    E  Q    E   
--------------0--5--|--3---------------|--------------0--5--|--3---------------|
-----------1--------|--3----3--3----3--|--1--------1--------|--3----3--3----3--|
--------2-----------|--0---------------|--------2-----------|--0---------------|
-----2--------------|--0---------------|-----2--------------|--0---------------|
--0-----------------|--2---------------|--0-----------------|--2---------------|
--------------------|--3---------------|--------------------|--3---------------|


  Am                  F                   G                 Am                 
                                          ^                 ^                  
  E  E  E  E  Q       E  E  E  E  Q       Q    Q    Q       E  E  E  E  E  E   
--------------0----|--------------0----|-----------------|--------------------|
--1----------------|-------------------|--3----3----1----|--3--1-----------1--|
--------2----------|--2----------------|--0--------------|--2-----2-----2-----|
-----2-----2-------|--------3----------|--0--------------|--2--------2--------|
--0----------------|-----3-----3-------|--2--------------|--0-----------------|
-------------------|--1----------------|--3--------------|--------------------|



 Phrase 5:

  Am                 G                 C                 D               
  ^                  ^                 ^                 ^               
  Q    E  E  Q       Q    Q    Q       Q    Q    Q       H        E  E   
--0----------0----|-----------------|--0---------0----|--2--------0-----|
--1---------------|--3---------3----|--1--------------|--3-----------3--|
--2-------2-------|--0----0---------|--0----2---------|--2--------------|
--2----2----------|--0--------------|--2--------------|--0--------------|
--0---------------|--2--------------|--3--------------|-----------------|
------------------|--3--------------|-----------------|-----------------|


  Am                G                 C                 D               
  ^                 ^                 ^                                 
  Q    Q    Q       Q    Q    Q       Q    Q    Q       H        E  E   
--0---------0----|-----------------|--0--------------|-----------------|
--1----1---------|--3---------3----|--1----3----1----|--3--------------|
--2--------------|--0----0---------|--0--------------|--------------0--|
--2--------------|--0--------------|--2--------------|--0--------2-----|
--0--------------|--2--------------|--3--------------|-----------------|
-----------------|--3--------------|-----------------|-----------------|



 2nd Chorus:

  Em                   G                 D                   C                
                       ^                                     ^                
  E  E  E  E  E  E     H        E  E     Q    E  E  E  E     Q    E  E  Q     
--------------------|-----------------|-------------------|------------------|
-----------------3--|--0--------------|----------0--------|----------1-------|
--2--2--2--0--2-----|--0--------2--0--|--2----2-----2--0--|-------0-----0----|
--------------------|--0--------------|--0----------------|--2---------------|
--------------------|--2--------------|-------------------|--3---------------|
--0-----------------|--3--------------|-------------------|------------------|


  D                   C                 D                  Bm                
  Q    E  E  E  E     Q.     E  Q       Q    E  E  Q       E  E  Q    E  E   
-------------------|-----------------|----------2-------|-------------------|
----------0--------|-----------------|-------------3----|-------------------|
--2----2-----2--0--|------------0----|--2----2----------|--------4-------0--|
--0----------------|--2------2-------|--0---------------|-----4-------2-----|
-------------------|--3--------------|------------------|--2----------------|
-------------------|-----------------|------------------|-------------------|


  Em                   G                 D                   C                
                       ^                                     ^                
  E  E  E  E  E  E     H        E  E     Q    E  E  E  E     Q    E  E  Q     
--------------------|-----------------|-------------------|------------------|
-----------------3--|--0--------------|----------0--------|----------1-------|
--2--2--2--0--2-----|--0--------2--0--|--2----2-----2--0--|-------0-----0----|
--------------------|--0--------------|--0----------------|--2---------------|
--------------------|--2--------------|-------------------|--3---------------|
--0-----------------|--3--------------|-------------------|------------------|


  D                   C                 D                  Bm                 
  Q    E  E  E  E     Q.     E  Q       Q    E  E  Q       E  E  E  E  E  E   
-------------------|-----------------|----------2-------|--------------2-----|
----------0--------|-----------------|-------------3----|-----------3--------|
--2----2-----2--0--|------------0----|--2----2----------|--------4--------4--|
--0----------------|--2------2-------|--0---------------|-----4--------------|
-------------------|--3--------------|------------------|--2-----------------|
-------------------|-----------------|------------------|--------------------|



 Arpeggio:

  Em                   G                    D                    C                  
  E  E  E  E  E  E     E  E  E  E  E  E     E  E  E  E  E  E     E  E  E  E  E  E   
-----------0--------|-----------3--------|-----------2--------|-----------0--------|
--------0-----0-----|--------0-----0-----|--------3-----3-----|--------1-----1-----|
-----0-----------0--|-----0-----------0--|-----2-----------2--|-----0-----------0--|
--------------------|--------------------|--0-----------------|--------------------|
--------------------|--------------------|--------------------|--3-----------------|
--0-----------------|--3-----------------|--------------------|--------------------|


  Am                   C                    D                    Bm                 
  E  E  E  E  E  E     E  E  E  E  E  E     E  E  E  E  E  E     E  E  E  E  E  E   
-----------0--------|-----------0--------|-----------2--------|--------------0--3--|
--------1-----1-----|--------1-----1-----|--------3-----3-----|-----------3--------|
-----2-----------2--|-----0-----------0--|-----2-----------2--|--------4-----------|
--------------------|--------------------|--0-----------------|-----4--------------|
--0-----------------|--3-----------------|--------------------|--2-----------------|
--------------------|--------------------|--------------------|--------------------|



 3rd Chorus:

  Am                    G                 D                    C                
                        ^                 ^                    ^                
  E  E  E  E  E   E     H        E  E     Q    E   E  E  E     Q    E  E  Q     
--5--5--5--3--5--10--|--7--------5-----|--5----5h--7--5--3--|--0---------------|
---------------------|--8--------L--8--|--7-----------------|--1-------1-------|
---------------------|--7--------------|--7-----------------|--0----0-----0----|
---------------------|-----------------|--0-----------------|--2---------------|
---------------------|-----------------|--------------------|--3---------------|
--0------------------|-----------------|--------------------|------------------|


  D                    C                 D                  Bm                
                       ^                 ^                
  Q    E   E  E  E     H        E  E     Q    E  E  Q       E  E  E  E  E  E   
--0----5h--7--5--3--|--0--------0--3--|--5---------------|--------------2-----|
--------------------|--1--------------|--7---------------|-----------3-----3--|
--------------------|--0--------------|--7-------7-------|--------4-----------|
--------------------|--2--------------|--0----7-----7----|-----4--------------|
--0-----------------|--3--------------|------------------|--2-----------------|
--------------------|-----------------|------------------|--------------------|



 Strumming:

     Em                  G                   D                   C                 
     ^    ^  v  ^  v     ^    ^  v  ^  v     ^    ^  v  ^  v     ^    ^  v  ^  v   
     Q    E  E  E  E     Q    E  E  E  E     Q    E  E  E  E     Q    E  E  E  E   
E||--0----0--0--0--0--|--3----3--3--3--3--|--2----2--2--2--2--|--0----0--0--0--0--|
B||--0----0--0--0--0--|--3----3--3--3--3--|--3----3--3--3--3--|--1----1--1--1--1--|
G||--0----0--0--0--0--|--0----0--0--0--0--|--2----2--2--2--2--|--0----0--0--0--0--|
D||--2----2--2--2-----|--0----0--0--0-----|--0----0-----------|--2----2-----2-----|
A||--2----2-----------|--2----2-----------|-------------------|--3----------------|
E||--0----------------|--3----------------|-------------------|-------------------|


  Am                  C                   D                   Bm                
  ^    ^  v  ^  v     ^    ^  v  ^  v     ^    ^  v  ^  v     ^    ^  v  ^  v   
  Q    E  E  E  E     Q    E  E  E  E     Q    E  E  E  E     Q    E  E  E  E   
--0----0--0--0--0--|--0----0--0--0--0--|--2----2--2--2--2--|--2----2--2--2--2--|
--1----1--1--1--1--|--1----1--1--1--1--|--3----3--3--3--3--|--3----3--3--3--3--|
--2----2--2--2--2--|--0----0--0--0--0--|--2----2--2--2--2--|--4----4--4--4--4--|
--2----2-----2-----|--2----2-----2-----|--0----0-----------|--4----4-----4-----|
--0----------------|--3----------------|-------------------|--2----------------|
-------------------|-------------------|-------------------|-------------------|


  Em                  G                   D                   C                 
  ^    ^  v  ^  v     ^    ^  v  ^  v     ^    ^  v  ^  v     ^    ^  v  ^  v   
  Q    E  E  E  E     Q    E  E  E  E     Q    E  E  E  E     Q    E  E  E  E   
--0----0--0--0--0--|--3----3--3--3--3--|--2----2--2--2--2--|--0----0--0--0--0--|
--0----0--0--0--0--|--3----3--3--3--3--|--3----3--3--3--3--|--1----1--1--1--1--|
--0----0--0--0--0--|--0----0--0--0--0--|--2----2--2--2--2--|--0----0--0--0--0--|
--2----2--2--2-----|--0----0--0--0-----|--0----0-----------|--2----2-----2-----|
--2----2-----------|--2----2-----------|-------------------|--3----------------|
--0----------------|--3----------------|-------------------|-------------------|



(Start Slowing down the Tempo)

  Am                  C                   Em                  Em            
  ^    ^  v  ^  v     ^    ^  v  ^  v     ^    ^  v  ^  v     ^             
  Q    E  E  E  E     Q    E  E  E  E     Q    E  E  E  E     H.            
--0----0--0--0--0--|--0----0--0--0--0--|--0----0--0--0--0--|--0------------|
--1----1--1--1--1--|--1----1--1--1--1--|--0----0--0--0--0--|--0------------|
--2----2--2--2--2--|--0----0--0--0--0--|--0----0--0--0--0--|--0------------|
--2----2-----2-----|--2----2-----2-----|--2----2--2--2-----|--2------------|
--0----------------|--3----------------|--2----2-----------|--2------------|
-------------------|-------------------|--0----------------|--0------------|

                   



Chords Legend
----------------

Em  |--0--|      D  |--2--|      A  |-----|      Am |--0--|
    |--0--|         |--3--|         |--2--|         |--1--|
    |--0--|         |--2--|         |--2--|         |--2--|
    |--2--|         |--0--|         |--2--|         |--2--|
    |--2--|         |-----|         |--0--|         |--0--|
    |--0--|         |-----|         |-----|         |-----|


 G  |--3--|       C  |--0--|     F  |--1--|      Bm |--2--|
    |--0--|          |--1--|        |--1--|         |--2--|
    |--0--|          |--0--|        |--2--|         |--2--|
    |--0--|          |--2--|        |--3--|         |--2--|
    |--2--|          |--3--|        |--3--|         |--2--|
    |--3--|          |-----|        |--1--|         |--2--|




Duration Legend
---------------
H - half
Q - quarter
E - 8th
. - note dotted




Tablature Legend
----------------
L - tied note
h - hammer on
^ - brush up
v - brush down


Login or Register to remove this ad.

4 comments on Arrietty's Song (Guitaryuya Version)

Thanks

Thanks this is really great.

Nice job. Will you be

Nice job. Will you be transcribing any of Guitaryuya's other arrangements?

Thanks

About other Guitaryuya's arrangements...
I don't know...Maybe.
If I have the time...

This is pretty cool

5

This is pretty cool