Ads

My Secret (Kaichou wa Maid-sama!) Guitar Tab

Submitted: Aug 26, 2012 by komarEX

5
Average: 5 (1 vote)
Download | Listen
Game: Kaichou wa Maid-sama!
Composer(s): Saaya Mizuno
Style: Transcription

Click here for a video example.

AutoScroll: Slow | Medium | Fast
Song: My Secret
Artist: Saaya Mizuno
Anime: Kaichou wa Maid-sama! [会長はメイド様!]
Type: OP - Opening (TV size)
TAB by: komarEX (http://www.youtube.com/user/komarEXcam)

Copyright © 2012 by komarEX, All rights reserved


e||-1----4----4-|
B||-1----4----4-|
G||-3----6----4-|
D||-3----6----6-|
A||-1----4----6-|
E||-----------4-|


e||---------------------------------------------------------|
B||-6-7-6-7-6-7-7--6-7-6-7-6-7-9-7--12-12-11-12--11-9-7-9-7-|
G||-6-6-6-6-6-6-6--6-6-6-6-6-6-6-6--11-11-11-11--10-8-6-6-6-|
D||---------------------------------------------------------|
A||---------------------------------------------------------|
E||---------------------------------------------------------|


e||-----------------------| x2
B||---7---7---7---7---7---|
G||-6---6---5---5---4---4-|
D||-----------------------|
A||-----------------------|
E||-----------------------|


e||-----3--------2--------4----------|
B||-2--------4--------6--------7-6-7-|
G||---3--------4--------6------6-6-6-|
D||----------------------------------|
A||----------------------------------|
E||----------------------------------|


e||-2--x--2--x--2--x--2--x--2--x----2x--2x--2x--2x-|
B||-2--x--2--x--2--x--2--x--2--x----2x--2x--2x--2x-|
G||-2--x--2--x--2--x--2--x--2--x----2x--2x--2x--2x-|
D||-4--x--4--x--4--x--4--x--4--x----4x--4x--4x--4x-|
A||-4--x--4--x--4--x--4--x--4--x----4x--4x--4x--4x-|
E||-2--x--2--x--2--x--2--x--2--x----2x--2x--2x--2x-|


e||-2--x--2--x--2--x--2--x--2--x----2x--2x--2x--2x-|
B||-2--x--2--x--2--x--2--x--2--x----2x--2x--2x--2x-|
G||-4--x--4--x--4--x--4--x--4--x----4x--4x--4x--4x-|
D||-4--x--4--x--4--x--4--x--4--x----4x--4x--4x--4x-|
A||-2--x--2--x--2--x--2--x--2--x----2x--2x--2x--2x-|
E||------------------------------------------------|


e||-4--x--4--x--4--x--4--x--4--x----4x--4x--4x--4x-|
B||-4--x--4--x--4--x--4--x--4--x----4x--4x--4x--4x-|
G||-6--x--6--x--6--x--6--x--6--x----6x--6x--6x--6x-|
D||-6--x--6--x--6--x--6--x--6--x----6x--6x--6x--6x-|
A||-4--x--4--x--4--x--4--x--4--x----4x--4x--4x--4x-|
E||------------------------------------------------|


e||-6--x--6--x--6--x--6--x--6--x----6x--6x--6x--6x-|
B||-6--x--6--x--6--x--6--x--6--x----6x--6x--6x--6x-|
G||-8--x--8--x--8--x--8--x--8--x----8x--8x--8x--8x-|
D||-8--x--8--x--8--x--8--x--8--x----8x--8x--8x--8x-|
A||-6--x--6--x--6--x--6--x--6--x----6x--6x--6x--6x-|
E||------------------------------------------------|


e||-1--------2--------------|-2--2--2--4--4--4--4-|
B||---2--------4------4-----|-2--2--2--4--4--4--4-|
G||-----3--------3------4---|-4--4--4--6--6--6--6-|
D||-----------------------4-|-4--4--4--6--6--6--6-|
A||-------------------------|-2--2--2--4--4--4--4-|
E||-------------------------|---------------------|


e||-4--6---8---8--4--6--4--1-|-4--6---8---8--4--6---8--4--6--x--4-|
B||-4--6---8---8--4--6--4--1-|-4--6---8---8--4--6---8--4--6--x--4-|
G||-4--6---8--10--6--8--4--1-|-6--8---8--10--6--8--10--6--8--x--6-|
D||-6--8--10--10--6--8--6--3-|-6--8--10--10--6--8--10--6--8--x--6-|
A||-6--8--10---8--4--6--6--3-|-4--6--10---8--4--6---8--4--6--x--4-|
E||-4--6---8------------4--1-|--------8---------------------------|


e||---------------------------------------------------------|
B||-6-7-6-7-6-7-7--6-7-6-7-6-7-9-7--12-12-11-12--11-9-7-9-7-|
G||-6-6-6-6-6-6-6--6-6-6-6-6-6-6-6--11-11-11-11--10-8-6-6-6-|
D||---------------------------------------------------------|
A||---------------------------------------------------------|
E||---------------------------------------------------------|


e||---------------------------------------| 
B||---7---7---7---7---7---/14-14-14-14-14-|
G||-6---6---5---5---4---4-/13-13-13-13-13-|
D||---------------------------------------|
A||---------------------------------------|
E||---------------------------------------|


Copyright © 2012 by komarEX, All rights reserved
Login or Register to remove this ad.