Login or Register to remove this ad.

Tenshi ni Fureta yo! (K-ON!) Guitar Tab

Submitted: Feb 15, 2012 by jiyeonn

4.894735
Average: 4.9 (19 votes)
Download | Listen
Game: K-ON!
Composer(s): Hiroyuki Maezawa
Style: Arrangement, Fingerstyle

AutoScroll: Slow | Medium | Fast
Tenshi ni Fureta yo!
K-on!
Composed by Hiroyuki Maezawa

Tabbed by J. Ho, 14 Feb 2012
Tuning: Standard EADGBE
Tempo: 90


E|-----2---3---5----3---5----|-10--8---7---8---7-8-7--------------|--------------------0---|
B|-3-------------------------|------------------------8---7---7---|-8---10--7--------------|
G|-0-------------------------|------------------------------------|--------------7---------|
D|---------------------------|-0----------------------------------|---------0--------------|
A|---------------------------|------------------------------------|--------------------3---|
E|-3-------------------------|--------------------------------0---|------------------------|


E|---------0----2---2-----|---------------------------------|---------------------------------|
B|-----0--------3---3-----|-0-----------0-------------------|-0---1---3---1-------0-----------|
G|-0------------2---2-----|-0-------0-----------0-------0---|-------------------------2---0---|
D|--------------0---0-----|-----0-----------0-------0-------|---------------------------------|
A|------------------------|---------------------------------|---------------------------------|
E|------------------------|-3-------------------------------|-3-----------3---3---------------|


E|---------------------------------|---------------------------------|---------------------------------|
B|-0-----------0-------------------|-0---1---3---1-------0-----------|-----------------------------0---|
G|-2-------2-----------2-------0---|-------------------------2---0---|-0-------0---0-----------0-------|
D|-0---0-----------0-------0-------|---------------------------------|-----2-----------2---2-----------|
A|---------------------------------|-2-----------2---2---------------|---------------------------------|
E|---------------------------------|---------------------------------|-0-------------------------------|


E|---------------------------------|---------------------------------|------------------------------|
B|-------------------------0---0---|-1---0---1---0---1---0-------0---|-3-----------3---0---3---3----|
G|-2-------0---0-------0-----------|-------------------------0-------|-2-------2-------0---2---2----|
D|-0---0-----------0---------------|---------------------------------|-0---0------------------------|
A|---------------------------------|-3-----------3---3---------------|-----------------0---2---2----|
E|---------------------------------|---------------------------------|------------------------------|


E|---------------------------------|---------------------------------|---------------------------------|
B|-0-----------0-------------------|-0---1---3---1-------0-----------|-0-----------0-------------------|
G|-0-------0-----------0-------0---|-------------------------2---0---|-2-------2-----------2-------0---|
D|-----0-----------0-------0-------|---------------------------------|-0---0-----------0-------0-------|
A|---------------------------------|---------------------------------|---------------------------------|
E|-3-------------------------------|-3-----------3---3---------------|---------------------------------|


E|---------------------------------|---------------------------------|---------------------------------|
B|-0---1---3---1-------0-----------|-----------------------------0---|-------------------------0---0---|
G|-------------------------2---0---|-0-------0---0-----------0-------|-2-------0---0-------0-----------|
D|---------------------------------|-----2-----------2---2-----------|-0---0-----------0---------------|
A|-2-----------2---2---------------|---------------------------------|---------------------------------|
E|---------------------------------|-0-------------------------------|---------------------------------|


E|---------------------------------|---------------------------------|-0-------0---0-------------------|
B|-1---0---1---0---1---0-------0---|-3-----------0---1-------3-------|-1-------1---1-------1---0-------|
G|-------------------------0-------|-2-------2-------0-------0-------|-----0---------------0---0-------|
D|---------------------------------|-0---0---------------0-------0---|-----------------------------0---|
A|-3-----------3---3---------------|---------------------------------|-3---------------3---------------|
E|---------------------------------|-----------------3---------------|---------------------------------|


E|---------------------------------|-------------------------0-------|---------------------------------|
B|---------0---1-----------0-------|-3---3-------0---3---------------|-0---------------------------0---|
G|-2-------0---0-----------0-------|-0---0-------0---0---------------|---------2-------0-------0-------|
D|-0---0-----------0---0-------0---|---------------------0-------0---|-----0-------0-------0-----------|
A|---------------------------------|-2-------2-----------------------|---------------------------------|
E|---------------------------------|---------------------------------|-0-------------------------------|


E|---------------------------------|-----------------------------------|---------------------------------|
B|-1-----------0---1-----------0---|-3-----------0-------------0-------|-1---0---1---0---1---0---1---3---|
G|-0-------0-------0-------0-------|-0-------0-------2--0--------------|-0---0---0---0---0---0---0---0---|
D|-----2---------------2-----------|-----0-----------------0-----------|---------------------------------|
A|-0---------------0---------------|-2-----------------------------2---|-3---------------3---------------|
E|---------------------------------|-----------------------------------|---------------------------------|


E|-0---------------0-------2----|-5-----------3---3---------------|-0-------------------------------|
B|-0-------3-------0-------3----|---------0-------------------0---|-------------3---3-----------3---|
G|---------2---------------2----|-----0-------------------0-------|---------0-------0-------0-------|
D|-0---0-------0-------0---0----|---------------------0-----------|-0---0---------------0-----------|
A|------------------------------|---------------------------------|---------------------------------|
E|------------------------------|-3-------------------------------|---------------------------------|


E|-5-----------3---3---------------|-0-------------------------------|-0-------3---2---------------2--3--|
B|---------0-------------------0---|-------------3---3-----------3---|-1---1---0---0-----------0---------|
G|-----0-------------------0-------|---------0-------0-------0-------|-----0---------------0-------------|
D|---------------------0-----------|-0---0---------------0-----------|-------------0---0-----------------|
A|---------------------------------|---------------------------------|-3---------------------------------|
E|-0-------------------------------|---------------------------------|-----------------------------------|


E|-5---2---5---3-------------------|---------------------------------|-----5---5---7---5---3---3---0---|
B|-------------------------0-------|-1-----------0---1-------3-------|---------------------------------|
G|---------------------0-------0---|-0-------0-------0-------0-------|---------------------------------|
D|-----------------0---------------|-----2---------------2-------2---|-0-------------------------------|
A|---------------------------------|-0---------------0---------------|---------------------------------|
E|-0-----------0-------------------|---------------------------------|---------------------------------|


E|-5-----------3---3---------------|-0-------------------------------|-5-----------3---3---------------|
B|---------0-------------------0---|-------------3---3-----------3---|---------0-------------------0---|
G|-----0-------------------0-------|---------0-------0-------0-------|-----0-------------------0-------|
D|---------------------0-----------|-0---0---------------0-----------|---------------------0-----------|
A|---------------------------------|---------------------------------|---------------------------------|
E|-3-------------------------------|---------------------------------|-0-------------------------------|


E|-0-------------------------------|-0-------------------------------|---------1---0-------------------|
B|-------------3---3-----------3---|-1---1---0---------------0---1---|-3---0---0---0-------0-------0---|
G|---------0-------0-------0-------|-----0---0---2-------2-----------|-0---0---------------0-------0---|
D|-0---0---------------0-----------|-------------0---0---------------|---------------------------------|
A|---------------------------------|-3-------------------------------|-2---------------2-------2-------|
E|---------------------------------|---------------------------------|---------------------------------|


E|-------------------------------|------------------------|-----2---3---5----3---5----|
B|-1-----------0---1----1----3---|-0----------------------|-3-------------------------|
G|-0-------0-------0----0----0---|-0----2----0----2---2---|-0-------------------------|
D|-----2-------------------------|-0----------------------|---------------------------|
A|-0---------------0-------------|------------------------|---------------------------|
E|-------------------------------|------------------------|-3-------------------------|


E|-10--8---7---8---7-8-7--------------|--------------------0---|---------0---2-----------2---3---|
B|------------------------8---7---7---|-8---10--7--------------|-----0-------3-------3-------3---|
G|------------------------------------|--------------7---------|-0-----------2---2-----------0---|
D|-0----------------------------------|---------0--------------|-------------0-------------------|
A|------------------------------------|--------------------3---|---------------------------------|
E|--------------------------------0---|------------------------|-----------------------------3---|


E|---------------------------------|--------|--------|
B|-----3-------1-------0-----------|--------|--------|
G|-0-------0-------0-------0---0---|-0------|-0------|
D|-----------------------------0---|-0------|-0------|
A|-----------------------------2---|-2------|-2------|
E|-----------------------------3---|-3------|-3------|



Login or Register to remove this ad.

5 comments on Tenshi ni Fureta yo!

Wonderful! I love it and I

5

Wonderful! I love it and I have a friend who would love to hear it =) Thanks so much for this tab

Favorited^^ thx for the tab!!

5

Favorited^^ thx for the tab!!

K-ON!!! <3

5

K-ON!!! <3

I enjoyed it :)

5

I enjoyed it :)

Excellent

5

A fine piece of work I must admit. 10/10.