Dark Jungle (Jurassic Park 2: The Chaos Continues) Bass/Guitar Tab

Submitted: Feb 01, 2010 by xuwawa (Last updated: Apr 05, 2010)

0
Download | Listen
Game: Jurassic Park 2: The Chaos Continues
Composer(s): Jonathan Dunn, Dean Evans
Style: 2 or more instruments, Alternate picking, Transcription

AutoScroll: Slow | Medium | Fast
Title: Dark Jungle
Composers: Jonathan Dunn & Dean Evans
Game: Jurassic Park 2: The Chaos Continues - SNES
Transcriber: Randall Scott Stephens (xuwawa on gametabs.net)
Date: 20 January 2010

A Major, 4/4, 62 bpm

Structure:
*intro
*main 2x
*bass solo
*main 2x
*bass solo
...etc

Guitar: flute lead
*Intro
E|-------------------|------------------------|-------------------|--------|
B|-------------------|------------------------|-------------------|--------|
G|-------------------|-------------4----------|-------------------|--------|
D|-------4--6--------|-------4--6--------7----|-6--7--4-----------|--------|
A|-4--5--------------|-4--5-------------------|----------5--4-----|--------|
E|-------------------|------------------------|-------------------|--------|

E|-------------------|-------------------------------|-------------|--------|
B|-------------------|-------------------------------|-------------|--------|
G|-------------------|----------4--6-----7--6--4-----|-------------|--------|
D|-------4--6--------|----4--6--------------------7--|-6--4--6-----|--------|
A|-4--5--------------|-5-----------------------------|-------------|--------|
E|-------------------|-------------------------------|-------------|--------|

*Main
E|------------------------------------|-------------------|-------------------|--------|
B|*-----------------------------------|-------------------|-------------------|--------|
G|------------------------------------|----------4--6-----|-------------------|--------|
D|--------4--6--------7--6--4---------|----4--6-----------|-------------------|--------|
A|*-4--5-----------------------5--4---|-5-----------------|----4--5--4--------|--------|
E|------------------------------------|-------------------|-7-----------------|--------|

E|-------------------------------------------|-------------------|-------------------|-------------------|
B|-------------------------------------------|-------------------|-------------------|-------------------|
G|-------------------------------------------|----------4--6-----|-------------------|-------------------|
D|-------4--6--------7--6--4-----------------|----4--6-----------|-------------------|----------------6--|
A|-4--5-----------------------5--4-----------|-5-----------------|----4--5--4--------|----------8--9-----|
E|----------------------------------7--5--4--|-------------------|-7-----------------|-------9-----------|

E|-------------|-------------|-------------------|-------------------------|---------------|
B|-------------|-------------|-------------------|-------7-----------------|---------------|
G|-------------|-------------|-------6--------6--|-7--9------------9---7---|-6-----6-tr-7--|
D|----6--7-----|-6--7--9-----|-7--9--------------|-------------------------|---------------|
A|-9-----------|-------------|-------------------|-------------------------|---------------|
E|-------------|-------------|-------------------|-------------------------|---------------|

Rest 11 measures - bass part starts in 2nd RM

E|------------------------|------------|----|------------|----------------|----|
B|------------------------|------------|----|------------|----------------|---*|
G|------------------------|------------|----|------------|----------------|----|
D|------------------------|------------|----|------------|----------------|----|
A|----------------0--2----|-4--4-tr-5--|----|-------5----|-4-----4-tr-5---|---*|
E|------------------------|------------|----|------------|----------------|----|

*Bass Solo: Rest 8 measures


Bass: choir ooos lead and bass solo
*Intro: rest 8 measures
*Main: rest 14 measures, then-
G|-----------------|-------2----|-1----------|--------|-----------------|
D|-------0----4----|-3----------|-------0----|--------|-------0----4----|
A|-4---------------|------------|------------|-4------|-4---------------|
E|-----------------|------------|------------|--------|-----------------|

G|-1-----2----|-1----------|------------|------------|-------1----|
D|------------|-------0----|------------|-0-----2----|-4----------|
A|------------|------------|-4-----4----|------------|------------|
E|------------|------------|------------|------------|------------|

G|-2-----1----|--------|------------|------------|--------|--------|
D|------------|--------|-0-----2----|-4-----0----|--------|-------*|
A|------------|-4------|------------|------------|-4------|-------*|
E|------------|--------|------------|------------|--------|--------|

*Solo:
G|-------------------------------------------------------------------|
D|----------2--4-----------2--4-----------2--4--2--------------------|
A|-------2--------------2--------------2-----------4--2--0-----------|
E|-2--5-----------2--5-----------2--5-----------------------5--4--0--|

G|-------------------------------------------------------------|
D|----------2--4-----------2--4-----------2--4--2--------------|
A|-------2--------------2--------------2-----------4--2--0--2--|
E|-2--5-----------2--5-----------2--5--------------------------|

G|----------------------------------------------------------------|
D|-------4--4--6--------4--4--6--------4--4--6--4-----6-----------|
A|-4--7-----------4--7-----------4--7--------------7-----4--------|
E|----------------------------------------------------------4--7--|

G|----------------------------------------------------------------|
D|-------4--4--6--------4--4--6--------4--4--6--4--6--4-----------|
A|-4--7-----------4--7-----------4--7--------------------7--4-----|
E|-------------------------------------------------------------4--|

G|----------------------------------------------2-----------------|
D|----------2--4-----------2--4-----------2--4-----4--2-----------|
A|-------2--------------2--------------2-----------------4--2-----|
E|-2--5-----------2--5-----------2--5--------------------------0--|

G|-------------------------------------------------------------|
D|----------2--4-----------2--4-----------2--4--2--------------|
A|-------2--------------2--------------2-----------4--2--0--2--|
E|-2--5-----------2--5-----------2--5--------------------------|

G|----------------------------------------------------------------|
D|-------4--4--6--------4--4--6--------4--4--6--4-----6-----------|
A|-4--7-----------4--7-----------4--7--------------7-----4--------|
E|----------------------------------------------------------4--7--|

G|-------------------------------------------------------------|
D|-------4--4--6--------4--4--6--------4--4--6--4--6-----------|
A|-4--7-----------4--7-----------4--7-----------------7--4-----|
E|----------------------------------------------------------4--|


Slow Strings
*Intro
G|--------|--------|--------|--------|--------|--------|--------|--------|
D|-4------|(4)-----|(4)-----|(4)-----|(4)-----|(4)-----|--------|--------|
A|--------|--------|--------|--------|--------|--------|-4------|(4)-----|
E|--------|--------|--------|--------|--------|--------|--------|--------|

*Main
G|--------|--------|--------|--------|--------|--------|--------|--------|
D|*4------|(4)-----|--------|--------|-4------|(4)-----|--------|--------|
A|*-------|--------|-4------|(4)-----|--------|--------|-4------|(4)-----|
E|--------|--------|--------|--------|--------|--------|--------|--------|

G|--------|--------|--------|--------|--------|--------|--------|--------|
D|-4------|--------|--------|--------|-4------|(4)-----|(4)-----|(4)-----|
A|--------|-4------|-0------|-2------|--------|--------|--------|--------|
E|--------|--------|--------|--------|--------|--------|--------|--------|

G|--------|--------|--------|--------|--------|--------|--------|--------|
D|(4)-----|(4)-----|(4)-----|(4)-----|--------|-4------|-0------|(0)-----|
A|--------|--------|--------|--------|-4------|--------|--------|--------|
E|--------|--------|--------|--------|--------|--------|--------|--------|

G|--------|--------|--------|--------|--------|--------|
D|-4------|(4)-----|-0------|(0)-----|-4------|(4)----*|
A|--------|--------|--------|--------|--------|-------*|
E|--------|--------|--------|--------|--------|--------|

*Bass Solo: rest 8 measures
Login or Register to remove this ad.