Ads

Kimi=Hana (piano ver.) (Junjou Romantica) Guitar Tab

Submitted: Apr 26, 2016 by MechaKrauser

5
Average: 5 (2 votes)
Download | Listen
Game: Junjou Romantica
Composer(s): Kayo Konishi, Yukio Kondo
Style: Arrangement, Fingerstyle

AutoScroll: Slow | Medium | Fast
Kimi=Hana (piano ver)                                      
from Junjou Romantica
music by Tomonori Sekiguchi
tab by MechaKrauser

Standard tuning, capo on 1
2/4 time, 82bpm


     E  S S E  E     E  S S E  E     Q    E  E     E  S S E  E     Q    E  E     E  E  E  E   
E||--2--2-2----2--|-----2-3----3--|--2-------2--|--0--2-3----3--|--2----------|-----0-----0--|
B||---------------|--5------------|--0----------|--2------------|----------3--|--3-----------|
G||--2------------|--2------------|-------------|---------------|--0----------|--0-----------|
D||---------4-----|---------2-----|-------0-----|---------2-----|-------0-----|--------0-----|
A||--5------------|--4------------|--2----------|--0------------|-------------|--------------|
E||---------------|---------------|-------------|---------------|--3----------|--3-----------|


                                                         *Bar 2
														 
  E  E  E  E     E  E  E  S S    E  E  E  E     E  E  E  E     E  E  E  S S    E  E  E  S S  
--2--0--0--3--|-----2-----0---|--------------|--------------|---------------|--------5--L---|
-----------3--|-----2-------3-|-----------3--|--2--3--------|--------5--L-3-|-----3---------|
--2-----------|---------------|-----------0--|-----------2--|-----2---------|--2------------|
--------2-----|---------------|--------0-----|--0-----0-----|--------4------|--------4----4-|
--0-----------|--2-----0------|-----2--------|--------------|---------------|---------------|
--------------|---------------|--3-----------|--------------|--2------------|--2------------|


  E  E  E  S S    E  E  E  E     E  E  E  E     E  E  E  E     S S S S  S S  S S  
---------------|--0-----------|--2--3--2--0--|--------------|--------3h-5------3-|
--3------------|-----3-----3--|--------------|-----3--2--3--|------3------3h-5---|
-----2--2--L-2-|--------2-----|--0-----------|--------------|----2---------------|
---------------|--------------|--------0-----|--------2-----|--0-----------------|
--------2------|--------4--L--|--------------|--0-----------|--------------------|
--0------------|--2-----------|--3-----------|--------------|--------------------|


                 ^                                                                        
  E  E  E  E     E  E  E  E     E  E  E  E     E  E  E  E     E  E  E  E     E  E  E  E   
--2--0--------|--------------|--------------|--------------|--------------|--------------|
--------3-----|--------------|--------------|--------------|--------0--2--|--3--3--3--2--|
-----------2--|-----------0--|--------0--0--|--2-----------|--------------|--------------|
--0-----------|--4--4--4-----|-----4--------|--------2-----|--------------|--------4-----|
-----------5--|--5-----------|--5-----------|-----4--------|--4-----------|--2-----------|
--------------|--------------|--------------|--5--------5--|-----5--------|--------------|


                       ^                                                                  
  E  E  E  E     E  E  E  E      Q    E  E     E  E  E  E     E  E  E  E     E  E  E  E   
--------------|--------------|--------------|--------------|--------------|--------------|
--------------|--------------|--------0--2--|--3--3--3--2--|--L--0--------|-----0--------|
-----4--2--2--|--------------|--------------|-----------2--|--L-----2--2--|--------------|
--------2-----|-----0--4--2--|---L----------|--4-----------|--------4-----|-----------0--|
--0-----------|--------2--1--|---L----------|--------5-----|--------------|--------2-----|
--------------|--3-----------|--------------|--2-----------|--------------|--3-----------|


                                ^        ^                                                  
  E  E  E  E     E  E  E  E     E  E  E  E     E  E  E  E     S S S S E  E     E  E  E  E   
--------------|--------------|--------------|--------------|----------------|--------------|
--------------|--------------|--------------|-----------2--|--2-------------|--0-----3--3--|
--------------|-----0--------|--------------|--------2-----|----2-----2--2--|--------0-----|
--L-----4--4--|--------4--2--|--2--0--4--2--|--L--2--------|------2---------|-----0--------|
-----2--------|--------2-----|--1--------0--|--L-----------|--0-----0-------|--------------|
--------------|--0-----------|--------------|--------------|----------------|--3-----------|


  E  E  E  E     E  E  E  E     E  E  E  E     E  E  E  E     E  E  E  E     E  E  E  E   
-----0--------|--------------|--------------|--2--3--2--0--|--------------|--------------|
-----------3--|--------------|--------------|--------------|-----3--2--3--|-----------3--|
--------------|--2--2--L-----|--------2--2--|--------------|--------------|--------4-----|
--------0-----|-----4--L-----|--------4-----|--------2-----|--------2-----|-----4--------|
--------------|--------------|-----5--------|--0-----------|--1-----------|--2-----------|
--3-----------|--2--------2--|--L-----------|--------------|--------------|--------------|


  E  E  E  E     E  E  E  E     E  E  E  E     E  E  E  E     E  E  E  E     E  E  E  E   
--------------|--------------|-----0-----0--|--2--3--2--0--|--------------|--------------|
--2-----------|--0-----3--3--|--------------|--------------|--3--------0--|--3--0--0--3--|
--------0--2--|-----------0--|-----0--------|--2-----------|--2-----------|--0-----------|
-----2--------|--------2-----|--------2-----|--------------|--------4-----|--------------|
--0-----------|-----2--------|--------------|--------4-----|-----4--------|--------2-----|
--------------|--0-----------|--0-----------|--2-----------|--2-----------|--0-----------|


                                ^                                                        
  E  E  E  E     E  E  E  E     Q    Q       E  S S E  E     E  S S E  E     Q    E  E   
-----0-----0--|--3--2-----0--|------------|--2--2-2----2--|-----2-3----3--|--2-------2--|
--------------|--0-----3-----|------------|---------------|--5------------|--0----------|
--------------|--------------|------------|--2------------|--2------------|-------------|
--------------|--------0-----|--4----2----|---------4-----|---------2-----|-------0-----|
--------4-----|--------------|--0---------|--5------------|--4------------|--2----------|
--2-----------|--3-----------|------------|---------------|---------------|-------------|


  E  S S E  E     Q    E  E     E  E  E  E     E  E  E  E     E  E  E  S S    E  E  E  E   
--0--2-3----3--|--2----------|-----0-----0--|--2--0--0--3--|-----2-----0---|--------------|
--2------------|----------3--|--3-----------|-----------3--|-----2-------3-|-----------3--|
---------------|--0----------|--0-----------|--2-----------|---------------|-----------0--|
---------2-----|-------0-----|--------0-----|--------2-----|---------------|--------0-----|
--0------------|-------------|--------------|--0-----------|--2-----0------|-----2--------|
---------------|--3----------|--3-----------|--------------|---------------|--3-----------|


           *Bar 2
		   
  E  E  E  E     E  E  E  S S    E  E  S S S S    E  E  E  E     E  E  E  S S    Q    E  E   
--------------|---------------|----------------|--------------|---------------|--2----3--0--|
--2--3--------|--------5--L-3-|----------------|-----------3--|-----3--5--5---|-------------|
-----------2--|-----2---------|--2---------2-2-|--2--0--0-----|---------------|--0-------0--|
--0-----0-----|--------4------|-----0--L-------|--------------|-------------0-|-------0-----|
--------------|---------------|----------------|--------2-----|--------4------|-------------|
--------------|--2------------|--2-------------|--0-----------|--2------------|--3----------|


  E  E  E  E     E  S S E  E     E  S S E  E     E  S S E  E     E  S S E  E     Q    E  E   
--------------|--2--2-2----2--|-----2-3----3--|--2--L------2--|--0--2-3----3--|--2----------|
-----3--2--3--|---------------|--5------------|--0--L-3-------|--2------------|----------3--|
--------------|--2------------|--2------------|---------------|---------------|--0----------|
--------2-----|---------4-----|---------2-----|---------0-----|---------2-----|-------0-----|
--0-----------|--5------------|--4------------|--2------------|--0------------|-------------|
--------------|---------------|---------------|---------------|---------------|--3----------|


  E  E  E  E     E  E  E  E     S S S S S S S S    E  E  E  E     S S S S S S S S  
-----0-----0--|--2--0--0--5--|------------------|-----3--2-----|--------------0---|
--3-----------|--------------|------3-----2-----|-----------3--|------0-3---2---3-|
--0-----------|--2--------2--|------------------|--------0-----|----0-------------|
--------0-----|--------2-----|----2-----2-----2-|-----0--------|------------------|
--------------|--0-----------|--0-----0-----0---|--------------|------------------|
--3-----------|--------------|------------------|--3-----------|--3-------3-------|


                     *Bar 2                                                  *rall.----------|
					 
  S S S S S S S S    S S S S S S S S    S S S S S S E     S S S S S S S S    S S S S S S S S  
--------------0---|----5-------------|--2-----0-L------|--------5-L-2-----|--2-----0---------|
--------3---------|----------3-------|--------0-L------|--3-----3-L---3---|--0-----0-------0-|
------2-----2-----|--2-----2-------2-|--0--------------|--2-------------2-|------0-------0---|
----0-------------|--------------0---|------2-------2--|------4-----------|----0-------0-----|
------------------|------------------|----2-------2----|----4-------------|------------------|
--2-------2-----2-|------2-----2-----|--0--------------|--2---------------|--3-------3-------|


->60bpm       *35bpm
                     ^          
  S S S S S S S S    H          
--2-----0-----5---|--2--------||
--------------5---|--0--------||
------3---------3-|--2--------||
----2-------2-----|--0--------||
--1-------1-------|-----------||
------------------|-----------||




Duration Legend
---------------
W - whole
H - half
Q - quarter
E - 8th
S - 16th
T - 32nd
X - 64th
. - note dotted
|-n-|  - n-tuplets


Tablature Legend
----------------
L - tied note
x - dead note
g - grace note
(n) - ghost note
> - accentuded note
NH - natural harmonic
AH - artificial harmonic
TH - tapped harmonic
SH - semi harmonic
PH - pitch harmonic
h - hammer on
p - pull off
b - bend
br - bendRelease
pb - preBend
pbr - preBendRelease
brb - bendReleaseBend
\n/ - tremolo bar dip
\n - tremolo bar dive
-/n - tremolo bar Release up
/n\ - tremolo bar inverted dip
/n - tremolo bar return
-\n - tremolo bar Release down
S - shift slide
s - legato slide
/ -  slide into from below or out of upwards
\ -  slide into from above or out of downwards
~ - vibrato
W - wide vibrato
tr - trill
TP - tremolo picking
T - tapping
S - slap
P - pop
< - fade in
^ - brush up
v - brush down
Login or Register to remove this ad.