Nascence (Journey) Guitar Tab

Submitted: Jun 24, 2012 by hslesperance

4.333335
Average: 4.3 (3 votes)
Download | Listen
Game: Journey
Composer(s): Austin Wintory
Style: Transcription

AutoScroll: Slow | Medium | Fast
Nascence
Journey
Composed by Austin Wintory
Tabbed by hslesperance
6/23/12

Standard Tuning


e-------------------------------------------------------------
B-------------------------------------------------------------
G-------------------------------------------------------------
D-------------------------------------------------------------
A---2-----------------2--4--5---------------------2-----------
E------------------5-----------------5------------------------

e-------------------------------------------------------------
B-------------------------------------------------------------
G-------------------------------------------------------------
D------------4---------2--------------------------------------
A------2--4---------5-----------4--5----4-----------------2---
E---5----------------------------------------------5----------

e-------------------------------------------------------------
B---------------------------------2--3------------------------
G---2------------4----------2--4--------------2--------4------
D-------------------------------------------------------------
A-------------------------------------------------------------
E-------------------------------------------------------------

e------------2------------------------------------------------
B---------2---------3--5------2--3--2-------------------------
G---2--4-----------------------------------------2------------
D---------------------------------------------------------4---
A-------------------------------------------------------------
E-------------------------------------------------------------

e--------------------------5----------------7-----------------
B-----------3-----3-------------------------------------------
G---4----4-----4----------------------------------------------
D-------------------------------------------------------------
A-------------------------------------------------------------
E-------------------------------------------------------------

e-------7--9--10----------------------------------------14----
B---10------------------10--------12--------10--12--14--------
G-------------------------------------------------------------
D-------------------------------------------------------------
A-------------------------------------------------------------
E-------------------------------------------------------------

e---10--12------------12------10------12----------------------
B-------------------------14-------------14------------L\10---
G-------------------------------------------------------------
D-------------------------------------------------------------
A-------------------------------------------------------------
E-------------------------------------------------------------

e-------------------------------------------------------------
B---10--12----------------------------------------------------
G-------------------------------------------------------------
D-------------------------------------------------------------
A-------------------------------------------------------------
E-------------------------------------------------------------

L - tied note
\ - slide down
Login or Register to remove this ad.

1 comment on Nascence

Awesome game, I think I'll

Awesome game, I think I'll take your notes and play it on my cello, thanks!