I Was Born for This (Journey) Guitar Tab

Submitted: Nov 07, 2013 by thedstring (Last updated: Nov 08, 2013)

4.77778
Average: 4.8 (9 votes)
Download | Listen
Game: Journey
Composer(s): Austin Wintory
Style: Arrangement, Fingerstyle

AutoScroll: Slow | Medium | Fast
I was born for this (Ocarina version)
Austin Wintory

Arranged by Nate Brooks (thedstring)

 - Original song -
http://www.youtube.com/watch?v=h1vUz3QU-G4

Standard tuning
Capo fret 2

Be careful when it goes double time, and watch for the parts that aren't just
quarter notes, there's interesting timings going on here in this song.

3/4 timing

     h.    h.    h      h          h          h.      e  e  q     q
E |--0----|----|-------------|-------------|-------|-----0--------0-------|
B |--1----|----|-------------|-------------|-------|--1--0--1-----0-------|
G |--2----|----|-------------|-------------|-------|--2-----2-------------|
D |--2----|----|-------------|-------------|-------|----------------------|
A |--0----|----|--------0----|-----2-------|--3----|--0-------------------|
E |-------|----|--3----------|-------------|-------|----------------------|

  e  e  q     q          e  e  e  e  q          e  e  q     q
-----0----------------|----------------------|----------------------|
--1--0--0-------------|--0--1--0--1--3-------|--0--1--0-------------|
--2-----2-------------|--0-----0-------------|--0-----0-------------|
--------0-------------|--0-------------------|--0-----0-------------|
----------------------|----------------------|--------------0-------|
--------------3-------|----------------------|----------------------|

  e  e  q     q          e  e  q     q          e  e  e  e  q
-----0--------0-------|-----0----------------|----------------------|
--1--0--1-----0-------|--1--0--0-------------|--0--1--0--1--3-------|
--2-----2-------------|--2-----2-------------|--0-----0-------------|
--------------2-------|--------0-------------|----------------------|
--------0-------------|--3-------------------|--0-----0-------------|
----------------------|--------------3-------|--------------0-------|

  e  e  e     q          e  e  q     q          e  e  q     q
----------------------|-----0--------0-------|-----0----------------|
--0--1--0-------------|--1--0--1-----0-------|--1--0--0-------------|
--0-----0-------------|--2-----2-------------|--2-----2-------------|
--0-----0-------------|--------------2-------|--------0-------------|
--------------3-------|--0-------------------|--3-------------------|
----------------------|----------------------|--------------3-------|

  e  e  e  e  q          e  e  e     q          q  q  q       q  q  q
----------------------|--------------1-------|--0----------|-------------|
--0--1--0--1--3-------|--0--1--3-------------|-----1-------|-------------|
--0-----0-------------|--0-----0-----0-------|-------------|-----0-------|
----------------------|--0-----0-------------|--------2----|--0----------|
--0-----0-------------|----------------------|--3--0-------|--------3----|
--------------0-------|----------------------|-------------|-------------|

  q  q  q       q  q  q       q  q  q       q  q  q       q  q  q
-------------|-------------|--0>---------|-------------|-------------|
--3--0-------|-------------|-------------|-------------|-------------|
--2----------|-----0-------|-----2-------|-----0-------|-----2-------|
--------2----|--0----------|--------2----|--0----------|--------2----|
--0----------|--------3----|--0----------|--------3----|--0----------|
-------------|-------------|-------------|-------------|-------------|

  q  q  q       q  q  q       q  q  q       q  q  q       q  q  q
-------------|--0>---------|-------------|-------------|-------------|
--3>---------|-------------|--1>---------|-------------|--0>---------|
-----0-------|-------------|--2----------|-------------|--2----------|
--0----------|--0--2--3----|-----3--2----|-----0--3----|-----3--0----|
--------3----|-------------|--0----------|-------------|-------------|
-------------|-------------|--------0----|--1----------|-------------|

  q  q  q       q  q  q       q  q  q       q  q  q       q  q  q
-------------|-------------|-------------|-------------|-------------|
--3>---------|--3----------|-------------|--1>---------|--0>---------|
-------------|-----0-------|-------------|-------------|-----0-------|
--------0----|--2-----2----|--------0----|--2-----0----|-------------|
-----3-------|-------------|--0--3-------|-----3-------|--------2----|
-------------|-------------|-------------|-------------|--0----------|

  q  q  q       q  q  q       q  q  q       q  q  q       q  q  q
-------------|-------------|-------------|--0----------|--0----------|
--0----------|-----0-------|-------------|-------------|-------------|
-----0-------|--2----------|--0----------|-----2-------|-----0-------|
--------2----|--------2----|-----2-------|--------2----|--0----------|
-------------|-------------|--------2----|--0----------|--------3----|
-------------|--3----------|-------------|-------------|-------------|

  q  q  q       q  q  q       q  q  q       q  q  q       q  q  q
-------------|-------------|--3----------|--3----------|--3----------|
-------------|--3----------|-------------|-------------|-------------|
-----2-------|-----0-------|-------------|--2----------|-------------|
--------2----|--0----------|-----0--3----|-----3--0----|-----0--3----|
--0----------|--------3----|-------------|-------------|-------------|
-------------|-------------|-------------|-------------|--1----------|

  q  q  q       q  q  q       q  q  q       q  q  q       q  q  q
--1----------|--0----------|-------------|-------------|--0----------|
-------------|-------------|--3----------|-------------|-------------|
--2----------|-----0-------|-------------|--0----------|-----0-------|
-----3-------|-------------|--------2----|-----2-------|--------2----|
--------3----|--------3----|-----2-------|--------2----|-------------|
-------------|-------------|--0----------|-------------|-------------|

  q  q  q       q  q  q       q  q  q       q  q  q       q  q  q
-------------|-------------|-------------|-------------|--0>----0----|
--1----------|-----0--1----|--3----------|--3--0-------|-----1-------|
-----0-------|-----0-------|-----0-------|--------2----|--------2----|
--------0----|--2----------|--0----------|--0----------|-----2-------|
--3----------|-------------|--------2----|-------------|--0----------|
-------------|-------------|-------------|-------------|-------------|

  q  q  q       q  q  q       q  q  q       q  q  q       q  q  q
-------------|--5>----0----|-------------|--3----------|-------------|
--1--3--1----|-------------|-----3-------|-------------|-------------|
-------------|-----5--2----|--5--2--5----|--------0----|-------------|
--2----------|-------------|-------------|-------------|-----0-------|
-------------|--0----------|-------------|-----3-------|--3-----3----|
-------------|-------------|-------------|--1----------|-------------|

  q  q  q       q  q  q       q  q  q       q  q  q       q  q  q
--1----------|-------------|--3>---------|-------------|--0>---------|
-------------|-------------|-------------|-------------|-------------|
--------0----|-------------|--------0----|-----0-------|-----0-------|
-------------|-----0-------|-----0-------|--0-----0----|--------0----|
-----3-------|--3-----3----|--3----------|-------------|--3----------|
--1----------|-------------|-------------|-------------|-------------|

  q  q  q       q  q  q       q  q  q       q  q  q       q  q  q
--------0----|--3>---------|--5>---------|--3>---------|--------0----|
--1>-3-------|--------0----|--------0----|-----0-------|-----0-------|
--0-----0----|-----0-------|-----0-------|-------------|--0----------|
-----2-------|--------0----|-------------|--------0----|-----0-------|
--0----------|-----2-------|-------------|-----2-------|--------2----|
-------------|--0----------|--0----------|--0----------|-------------|

  q  q  q       q  q  q       q  q  q       q  q  q       h.
--1----------|--0----------|-------------|--3----------|-------|
-------------|-------------|-------------|-------------|--1----|
--2----------|--0----------|-------------|--0----------|--2----|
--------3----|-----3-------|--------0----|-----0-------|--0----|
-----3-------|--------3----|-----3-------|--------3----|-------|
--1----------|-------------|--1----------|-------------|--3----|




  e  e  q     q          e  e  q     q          e  e  e  e  q
-----0--------0-------|-----0----------------|----------------------|
--1--0--1-----0-------|--1--0--0-------------|--0--1--0--1--3-------|
--2-----2-------------|--2-----2-------------|--0-----0-------------|
--------------2-------|--------0-------------|----------------------|
--------0-------------|--3-------------------|--0-----0-------------|
----------------------|--------------3-------|--------------0-------|

  e  e  q     q          e  e  q     q          e  e  q     q
----------------------|-----0--------0-------|-----0----------------|
--0--1--0-------------|--1--0--1-----0-------|--1--0--0-------------|
--0-----0-------------|--2-----2-------------|--2-----2-------------|
--0-----0-------------|--------------2-------|--------0-------------|
--------------3-------|--0-------------------|--3-------------------|
----------------------|----------------------|--------------3-------|

  e  e  e  e  q          e  e  q     q          q  q  q       q  q  q
----------------------|----------------------|--0----------|--0----------|
--0--1--0--1--3-------|--0--1--3-------------|--1----------|--1----------|
--0-----0-------------|--0-----0-----0-------|-----2-------|--2--0-------|
----------------------|--0-----0-------------|--------2----|--0----------|
--0-----0-------------|----------------------|--0----------|--------3----|
--------------0-------|----------------------|-------------|-------------|

  q  q  q       q  q  q       q  q  q       q  q  q       q  q  q
--0----------|-------------|--0----------|-------------|-------------|
--1----------|--3-----1----|--1----------|-------------|-------------|
-----2-------|--4--0-------|--2----------|--------2----|-------------|
--------2----|--0----------|--3-----0----|-----0-------|--------3----|
-------------|-------------|-----0-------|--3----------|-----3-------|
-------------|-------------|-------------|-------------|--1----------|

  q  q  q       q  q  q       q  q  q       q  q  q       q  q  q
-------------|-------------|-------------|-------------|-------------|
--0----------|--3----------|--3----------|--3----------|--1----------|
--0----------|-----0-------|--------0----|-----0-------|--------0----|
-----3-------|--2-----2----|-----2-------|--2----------|--2----------|
--------3----|--3----------|--3----------|--3-----3----|-----3-------|
-------------|-------------|-------------|-------------|--0----------|

  q  q  q       q  q  q       q  q  q       q  q  q       q  q  q
-------------|--0----------|-------------|--3----------|--0----------|
--0----------|-------------|-------------|-------------|--1----------|
--2----------|--0----------|--2----------|--0----------|-----2-------|
--------2----|-----2-------|--------2----|-----2-------|--------2----|
-----2-------|--------2----|-----2-------|--------2----|--0----------|
--0----------|-------------|--0----------|-------------|-------------|

  q  q  q       q  q  q       q     q     e  e       q  q  q       q  q  q
--0----------|--0----------|--------------0--1----|--3----------|--3----------|
--1----------|--1----------|--3-------------------|--3----------|--3----------|
-----0-------|-----2-------|--------0-------------|--2-----0----|--2--0-------|
--0----------|--------2----|--0-------------------|-----0-------|--------0----|
--------3----|--0----------|----------------------|-------------|-------------|
-------------|-------------|----------------------|--1----------|-------------|

  q  q  q       q  q  q       q  q  q       q  q  q       q  q  q
--3----------|-------------|--0----------|-------------|-------------|
--1----------|-------------|--------1----|--3--0-------|--3-----0----|
--0-----0----|--2--0-------|-----0-------|--4-----0----|--0----------|
-----0-------|--------0----|-------------|--5----------|-----2-------|
-------------|-------------|--3----------|-------------|-------------|
--1----------|-------------|-------------|--0----------|-------------|

  q  q  q       q  q  q       q  q  q       q  q  q       q  q  q
--0----------|-------------|-------------|--0----------|-------------|
-------------|--1----------|--1----------|--0-----0----|--3-----0----|
-----0-------|-----0-------|--------0----|-----0-------|-----0-------|
--------2----|--------2----|-------------|-------------|--0----------|
-------------|--3----------|-----3-------|--2----------|-------------|
-------------|-------------|-------------|-------------|-------------|

  q  q  q       q  q  q       q     e  e  q          q     e  e  q
-------------|-------------|----------------------|-----------0>---------|
--3>---------|-------------|-----------1>---------|--3>------------------|
--2----------|-------------|-----------2----------|----------------------|
--3-----0----|--2--0-------|--0-----------0-------|----------------------|
-----0-------|--------0----|--------0-------------|--------------0-------|
-------------|-------------|----------------------|--0-----1-------------|

  q  q  q       q  q  q       q  q  q       q  q  q       q  q  q
--1>---------|-------------|--0----------|-------------|-------------|
--1----------|-------------|--1>---------|-------------|--3----------|
-----0-------|--------0----|--------0----|-----0-------|--------0----|
-------------|--0----------|-----0-------|--0-----2----|-----3-------|
--3-----3----|-----3-------|--3----------|-------------|--1----------|
-------------|-------------|-------------|-------------|-------------|

  q  q  q       q     e  e  q          q     e  e  q          q  q  q
-------------|----------------------|-----------0----------|--5----------|
-------------|-----------1----------|--3-------------------|--3----------|
-----0-------|--------------3-------|----------------------|--3-----3----|
--3-----3----|--------3-------------|--0-------------------|--3--3-------|
-------------|--1-------------------|--------1-----0-------|-------------|
-------------|----------------------|----------------------|--3----------|

  q  q  q       q  q  q       q  q  q       q  q  q       q  q  q
-------------|-------------|-------------|--3----------|-------------|
--3----------|-------------|--6----------|--0----------|--0----------|
-----3-------|--------3----|-----5-------|--0-----0----|-----0-------|
--------3----|-----3-------|--------5----|-----2-------|--------2----|
-------------|-------------|-------------|-------------|-------------|
-------------|--3----------|--5----------|--0----------|-------------|

  q  q  q       q  q  q       q  q  q       q  q  q       q  q  q
-------------|--------0----|--1----------|--0----------|-------------|
-------------|-------------|--1----------|-------------|-------------|
-------------|-------------|-----0-------|--2----------|-------------|
--------2----|--4--2-------|--------3----|-----0-------|--------0----|
-----2-------|--------2----|-------------|--------3----|-----3-------|
--0----------|-------------|-------------|-------------|--1----------|

  q  q  q       q  q  q       q  q  q       q  q  q       q     e  e  q
-------------|-------------|-------------|-------------|--0--------3----------|
--3----------|--1----------|-------------|-----3-------|----------------------|
--0----------|--0----------|-------------|-----0-------|--------------0-------|
-----0-------|--2-----0----|--2-----0----|--------0----|--2-------------------|
--------3----|-----3-------|-----3-------|--3----------|--------3-------------|
-------------|-------------|-------------|-------------|----------------------|





  e  e  q     q          e  e  q     q          e  e  e  e  q
-----0--------0-------|-----0----------------|----------------------|
--1--0--1-----0-------|--1--0--0-------------|--0--1--0--1--3-------|
--2-----2-------------|--2-----2-------------|--0-----0-------------|
--------------2-------|--------0-------------|----------------------|
--------0-------------|--3-------------------|--0-----0-------------|
----------------------|--------------3-------|--------------0-------|

  e  e  q     q          e  e  q     q          e  e  q     q
----------------------|-----0--------0-------|-----0----------------|
--0--1--0-------------|--1--0--1-----0-------|--1--0--0-------------|
--0-----0-------------|--2-----2-------------|--2-----2-------------|
--0-----0-------------|--------------2-------|--------0-------------|
--------------3-------|--0-------------------|--3-------------------|
----------------------|----------------------|--------------3-------|

  e  e  e  e  q          e  e  q     q          q  q  q       q  q  q
----------------------|----------------------|-<12>--------|-------------|
--0--1--0--1--3-------|--0--1--3-------------|-------------|-------------|
--0-----0-------------|--0-----0-----0-------|-------------|-----0-------|
----------------------|--0-----0-------------|-----7--0----|--------0----|
--0-----0-------------|----------------------|--0----------|-------------|
--------------0-------|----------------------|-------------|--8----------|

  q  q  q       q  q  q       q  q  q       q  q  q       q  q  q
-------------|-------------|-<12>--------|-------------|-------------|
-------------|-------------|-------------|--1----------|-------------|
-------------|-<7>---------|-------------|-------------|--0----------|
-----7--0----|-----0-------|-----0-------|-----0-------|-----3-------|
--0----------|--------7----|--8----------|--------3----|--------0----|
-------------|--8----------|--------1----|-------------|-------------|

  q  q  q       q  q  q       q  q  q       q  q  q       q  q  q
-------------|-------------|-------------|-------------|-------------|
-<12>--------|-------------|-------------|-------------|-------------|
--0----------|-<7>---------|--0----------|-<7>---------|--5----------|
-----0-------|-----0-------|--------0----|-----0-------|-----5-------|
-------------|--------7----|-----7-------|--------7----|--------7----|
--------3----|--8----------|-------------|--8----------|--0----------|

  q  q  q       q  q  q       q  q  q       q  q  q       q  q  q
--7----------|--3----------|--5----------|--3----------|--0----------|
--------0----|--------0----|--------0----|--------0----|--1----------|
--0----------|--0----------|--2----------|--0----------|-----2-------|
-----0-------|-----0-------|-----0-------|-----0-------|--------2----|
-------------|-------------|-------------|-------------|--0----------|
--0----------|-------------|--0----------|-------------|-------------|

  q  q  q       q  q  q       q  q  q       q  q  q       q  q  q
--0----------|--0----------|-------------|--3----------|--3----------|
--1----------|--1----------|--3----------|--3----------|--3----------|
--2--0-------|-----2-------|-----0-------|--2-----0----|--2--0-------|
--0----------|--------2----|--0----------|-----0-------|--------0----|
--------3----|--0----------|--------3----|-------------|-------------|
-------------|-------------|-------------|--1----------|-------------|

  q  q  q       q  q  q       q  q  q       q  q  q       q  q  q
--3----------|--1----------|--0----------|-------------|-------------|
--1----------|-------------|--------1----|--3----------|-------------|
--0-----0----|--2--0-------|-----0-------|--0----------|--0----------|
-----0-------|--------0----|--2----------|--------0----|-----0-------|
-------------|-------------|--3----------|-----2-------|--------2----|
--1----------|-------------|-------------|--0----------|-------------|

  q  q  q       q  q  q       q  q  q       q  q  q       q  q  q
--0----------|-------------|-------------|-------------|-------------|
-------------|--1----------|-----1-------|--3----------|-------------|
-----0--2----|--------0----|--------0----|--------0----|-----0-------|
--2----------|-----2-------|--2----------|-----0-------|--------0----|
-------------|--3----------|-------------|-------------|--2----------|
-------------|-------------|-------------|--3----------|-------------|

  e  e  e  e  e  e       e  e  e  e  e  e       e  e  e  e  e  e
--0>------------------|----------------------|--0>------------------|
--0--------------0----|-----------------0----|-----0-----3>---------|
--0-----------0-------|--0-----------0-------|--------0-----0-------|
--------2--4----------|-----4--2-------------|-----------------0----|
-----2----------------|-----------2----------|----------------------|
--0-------------------|----------------------|-----------2----------|

  e  e  e  e  e  e       e  e  e  e  e  e       e  e  e  e  e  e
--0>-------2>---------|--3>------------------|----------------------|
-----------------0----|--------0-------------|--------0-------------|
-----0--------0-------|-----0-----------0----|-----0-----------0----|
--------0-------------|-----------0--2-------|-----------0--2-------|
-----------2----------|--3-------------------|--3-------------------|
--3-------------------|----------------------|----------------------|

  e  e  e  e  e  e       e  e  e  e  e  e       e  e  e  e  e  e
----------------------|----------------------|--0-------------------|
--3>------------------|----------------------|----------------------|
--------0--------0----|--------0--------0----|--------2-----2-------|
-----0-----0--2-------|-----0-----0--2-------|-----2-----2-----2----|
--3-------------------|--3-------------------|--0-------------------|
----------------------|----------------------|----------------------|

  e  e  e  e  e  e       e  e  e  e  e  e       e  e  e  e  e  e
----------------------|--0-------------------|--0--------2----------|
----------------------|-----------3----------|----------------------|
--------2-----2-------|--------0--------0----|--------0--------0----|
-----2-----2-----2----|-----0--------0-------|-----0--------0-------|
--0-------------------|--3-------------------|--3-------------------|
----------------------|----------------------|----------------------|

  e  e  e  e  e  e       e  e  e  e  e  e       e  e  e  e  e  e
----------------------|----------------------|----------------------|
--0>----------0--3----|--------------0-------|--------------0--3----|
--------0--2----------|--------0--2-----0----|--------0--2----------|
-----0----------------|-----0----------------|-----0----------------|
----------------------|--2-------------------|----------------------|
--3-------------------|----------------------|--3-------------------|

  e  e  e  e  e  e       e  e  e  e  e  e       e  e  e  e  e  e
-----------3----------|--5-----------0-------|--2-----0-------------|
--------------0-------|--------3-------------|--------------3-------|
--------0--------0----|-----2-----2-----2----|-----2-----2-----2----|
-----0----------------|--0-------------------|----------------------|
--2-------------------|----------------------|----------------------|
----------------------|----------------------|----------------------|

  e  e  e  e  e  e       e  e  e  e  e  e       q  q  q       q  q  q
--------------0-------|--------------2-------|--3--2-------|-------------|
--------3-------------|--3-------------------|--1----------|-------------|
-----2-----2-----2----|-----2----------------|--0-----0----|-----0-------|
--0-------------------|--------0-------------|--2----------|--------2----|
----------------------|--------------2-------|--0----------|--3----------|
----------------------|----------------------|-------------|-------------|

  q  q  q       q  q  q       q  q  q       q  q  q       q  q  q
-------------|-------------|-------------|-------------|-------------|
-------------|-----3-------|--1----------|--0--3-------|-------------|
--------2----|-----0-------|--------0----|-------------|--2----------|
-----2-------|--------2----|-----2-------|--------2----|--------4----|
--0----------|--3----------|-------------|-------------|-----5-------|
-------------|-------------|--3----------|-------------|--2----------|

  q  q  q       q  q  q       q  q  q       e  e  q     q          q  q  q
-------------|-------------|-------------|--0--2--0-----0-------|-------------|
-------------|-------------|--------3----|----------------------|--0-----0----|
--2----------|--0----------|-------------|----------------------|-------------|
-----4-------|--------4----|-----2-------|--2-----------2-------|-----2-------|
--------5----|-----5-------|--0----------|----------------------|-------------|
-------------|--2----------|-------------|--------0-------------|-------------|

  e  e  q     q          q  q  q       e  e  q     q          q  q  q
--0--2--0-----0-------|-------------|--0--2--0-----0-------|-------------|
----------------------|--0-----0----|----------------------|--0-----0----|
----------------------|-------------|----------------------|-------------|
--2-----------2-------|-----2-------|--2-----------2-------|-----2-------|
----------------------|-------------|----------------------|-------------|
--------0-------------|-------------|--------0-------------|-------------|

  e  e  q     q          h     q       q     e  e  q
--0--2--0-----0-------|-------------|----------------------|
----------------------|--------3----|-----------0----------|
----------------------|--------2----|--0-------------------|
--2-----------2-------|--0----------|--------------2-------|
----------------------|-------------|--------2-------------|
--------0-------------|--2----------|--0-------------------|

  q     e  e  q          q     e  e  q          q     e  e  q
--2-------------------|-----------2----------|--0-------------------|
-----------0----------|----------------------|-----------0----------|
----------------------|--0-------------------|----------------------|
--------2-------------|--------------2-------|--------------2-------|
--------------2-------|--------2-------------|--------2-------------|
----------------------|--0-------------------|--0-------------------|

  q  q  q       q  q  q       q     e  e  q          q     e  e  q
--5----------|-------------|-----------3----------|----------------------|
--5----------|-------------|----------------------|-----------0----------|
--5----------|--5-----0----|--------------0-------|--2>----------0-------|
--5-----5----|-------------|--------2-------------|--------0-------------|
-----7-------|-----7-------|--0-------------------|--3-------------------|
--5----------|-------------|----------------------|----------------------|

  q  q  q       q  q  q       q  q  q       q  q  q       q  q  q
-------------|-------------|-------------|-------------|-------------|
--1----------|-------------|-------------|-------------|-------------|
--------0----|--------0----|-------------|--0----------|--2>---------|
-----2-------|--0--2-------|-----0--2----|-----2-------|--------3----|
--3----------|-------------|--3----------|--------3----|-----3-------|
-------------|-------------|-------------|-------------|--1----------|

  q  q  q       q     e  e  q          q     e  e  q          q  q  q
-------------|----------------------|----------------------|--0>---------|
-------------|----------------------|-----------0>---------|-------------|
--0----------|-----------0>---------|--2>------------------|--0----------|
-----3-------|--------------3-------|--------------3-------|-------------|
--------3----|--------3-------------|--------3-------------|--------3----|
-------------|--1-------------------|--1-------------------|-----3-------|

  q  q  q       q  q  q       q  q  q       q  q  q       q  q  q
-------------|-------------|-------------|-------------|-------------|
--------1----|--3-----0----|-----0-------|--1----------|-------------|
--------0----|-----0-------|--------0----|--2----------|--2----------|
--0--2-------|-------------|--0----------|--3-----3----|-----3-------|
-------------|--2----------|-------------|-----3-------|--------3----|
-------------|-------------|-------------|--1----------|-------------|

  q  q  q       q  q  q       q  q  q       h.      q  q  q
-------------|-------------|--0----------|--3----|-------------|
--0----------|-------------|--0----------|-------|-------------|
--0----------|--0----------|--0----------|--0----|--------0----|
--2-----2----|-----2-------|--------2----|-------|-----0-------|
-----2-------|--------2----|-----2-------|-------|-------------|
--0----------|-------------|--0----------|-------|--3----------|

  e  e  q     q          e  e  q     q          q  q  q
----------------------|----------------------|-------------|
--0--1--0-------------|--0--1--0-------------|-------------|
----------------------|--------------0-------|--------0----|
--------------0-------|----------------------|-----0-------|
----------------------|----------------------|-------------|
----------------------|----------------------|--3----------|

  e  e  q     q          e  e  q     q          q  q  q       q  q  q
----------------------|----------------------|-------------|-------------|
--0--1--0-------------|--0--1--0-------------|-------------|-------------|
----------------------|--------------0-------|--------0----|--2--0-------|
--------------0-------|----------------------|-----0-------|--------0----|
----------------------|----------------------|-------------|-------------|
----------------------|----------------------|--3----------|-------------|

  h.    h.     h.      h.
-------|----|-------|----||
-------|----|--0----|----||
--2----|----|--0----|----||
--2----|----|--0----|----||
--3----|----|-------|----||
--5----|----|-------|----||
Login or Register to remove this ad.

5 comments on I Was Born for This

aww come on now, who gave it

aww come on now, who gave it a 3 star?

thedstring saidaww come on

thedstring said

aww come on now, who gave it a 3 star?

Probably tl;dr rating. it's 5 stars for me at least.

Does the > mark stand for emphasis on the note or for artificial harmonics ?

the > is just emphasis, I

the > is just emphasis, I forgot to write that at the top.

It's what guitar pro adds to the plain text version of the tab if you have an emphasis on a note.

I don't know the original but

5

I don't know the original but i don't see anything wrong with this tab at all, certainly deserves more than a 3 star. I think someone has been going round down rating a lot of tabs recently which is a bit of a shame, especially when the tabs are fine. Good work on this!

Surprising, this song has

5

Surprising, this song has over 1000 views and only has 6 ratings...

Rate up guys! I rate almost every song I see!