Stage 1 (Journey to Silius) Guitar Tab

Submitted: Oct 17, 2012 by Aleph

0
Download | Listen
Game: Journey to Silius
Composer(s): Naoki Kodaka
Style: Transcription

AutoScroll: Slow | Medium | Fast
Stage 1
Journey to Silius
Tabbed by Aleph for guitar
10/15/2012


E|-------------------------------------------------------------------------|
B|-------------------------------------------------------------------------|
G|---5---8---7---5--5---8---7---5--5---8---7---5--5---8---10---------------| 2X
D|---3---8---7---5--5---8---7---5--5---8---7---5--5---8---10---------------|
A|---3---6---5---3--3---6---5---3--3---6---5---3--3---6---8----------------|
E|-------------------------------------------------------------------------|

E|-------------------------------------------------------------------------|
B|------8-------------------8----------------------------------------------|
G|---------10--8--7--8--10-------------------------7-8--7-7----------------|
D|--10-------------------------10-------8---10-10-----------10-8~----------|
A|----------------------------------10-------------------------------------|
E|-------------------------------------------------------------------------|

E|-------------------------------------------------------------------------|
B|------8-------------------8----------------------------------------------|
G|---------10--8--7--8--10-------------------------7-8--7-7--8-10~---------|
D|--10-------------------------10-------8---10-10--------------------------|
A|----------------------------------10-------------------------------------|
E|-------------------------------------------------------------------------|

E|-------------------------------------------------------------------------|
B|-------------------------------------------------------------------------|
G|--12--10--------------------12--10~---12--10-------------------10--12ph--|
D|----------10~---10--13--10--------------------10~--10--12--13------------|
A|-------------------------------------------------------------------------|
E|-------------------------------------------------------------------------|

E|-------------------------------------------------------------------------|
B|---------------------------------------------------11--------------------|
G|--12--10--------------------12--10~----12--10--12------12--10--12~-------|
D|----------10~---10--13--10-----------------------------------------------|
A|-------------------------------------------------------------------------|
E|-------------------------------------------------------------------------|

E|---------------------------------------15-13-----------------------------|
B|--11--13~--15-16-13~--15-16-13~--15-16-------16--------------------------|
G|------------------------------------------------15-----------------------|
D|-------------------------------------------------------------------------|
A|-------------------------------------------------------------------------|
E|-------------------------------------------------------------------------|

E|---------------------------------------15-13-15-18~----------------------|
B|------13~--15-16-13~--15-16-13~--15-16-----------------------------------|
G|-------------------------------------------------------------------------|
D|-------------------------------------------------------------------------|
A|-------------------------------------------------------------------------|
E|-------------------------------------------------------------------------|

E|---------------------------------------15-13-----------------------------|
B|------13~--15-16-13~--15-16-13~--15-16-------16--------------------------|
G|------------------------------------------------15-----------------------|
D|-------------------------------------------------------------------------|
A|-------------------------------------------------------------------------|
E|-------------------------------------------------------------------------|

E|---------------------------------------15-13-15-18---18b20~--------------|
B|------13~--15-16-13~--15-16-13~--15-16-----------------------------------|
G|-------------------------------------------------------------------------|
D|-------------------------------------------------------------------------|
A|-------------------------------------------------------------------------|
E|-------------------------------------------------------------------------|
Login or Register to remove this ad.